  0
SECTION
  2
HEADER
  9
$ACADVER
  1
AC1015
  9
$ACADMAINTVER
 70
    20
  9
$DWGCODEPAGE
  3
ANSI_932
  9
$INSBASE
 10
0.0
 20
0.0
 30
0.0
  9
$EXTMIN
 10
295.824642
 20
-107.34476
 30
0.0
  9
$EXTMAX
 10
487.8246419999999
 20
173.777369
 30
0.0
  9
$LIMMIN
 10
307.823646
 20
-107.345757
  9
$LIMMAX
 10
487.825646
 20
173.778374
  9
$ORTHOMODE
 70
     1
  9
$REGENMODE
 70
     1
  9
$FILLMODE
 70
     1
  9
$QTEXTMODE
 70
     0
  9
$MIRRTEXT
 70
     0
  9
$LTSCALE
 40
4.685369
  9
$ATTMODE
 70
     1
  9
$TEXTSIZE
 40
3.2
  9
$TRACEWID
 40
0.05
  9
$TEXTSTYLE
  7
高3.2
  9
$CLAYER
  8
0
  9
$CELTYPE
  6
CONTINUOUS
  9
$CECOLOR
 62
   256
  9
$CELTSCALE
 40
1.0
  9
$DISPSILH
 70
     0
  9
$DIMSCALE
 40
1.0
  9
$DIMASZ
 40
2.5
  9
$DIMEXO
 40
0.25
  9
$DIMDLI
 40
0.2
  9
$DIMRND
 40
0.0
  9
$DIMDLE
 40
0.0
  9
$DIMEXE
 40
1.25
  9
$DIMTP
 40
0.0
  9
$DIMTM
 40
0.0
  9
$DIMTXT
 40
3.0
  9
$DIMCEN
 40
0.0
  9
$DIMTSZ
 40
0.0
  9
$DIMTOL
 70
     0
  9
$DIMLIM
 70
     0
  9
$DIMTIH
 70
     0
  9
$DIMTOH
 70
     0
  9
$DIMSE1
 70
     0
  9
$DIMSE2
 70
     0
  9
$DIMTAD
 70
     3
  9
$DIMZIN
 70
     8
  9
$DIMBLK
  1
Open30
  9
$DIMASO
 70
     1
  9
$DIMSHO
 70
     1
  9
$DIMPOST
  1

  9
$DIMAPOST
  1

  9
$DIMALT
 70
     0
  9
$DIMALTD
 70
     3
  9
$DIMALTF
 40
0.03937007874016
  9
$DIMLFAC
 40
1.0
  9
$DIMTOFL
 70
     1
  9
$DIMTVP
 40
0.0
  9
$DIMTIX
 70
     0
  9
$DIMSOXD
 70
     0
  9
$DIMSAH
 70
     0
  9
$DIMBLK1
  1

  9
$DIMBLK2
  1

  9
$DIMSTYLE
  2
1：1
  9
$DIMCLRD
 70
     0
  9
$DIMCLRE
 70
     0
  9
$DIMCLRT
 70
     4
  9
$DIMTFAC
 40
1.0
  9
$DIMGAP
 40
0.625
  9
$DIMJUST
 70
     0
  9
$DIMSD1
 70
     0
  9
$DIMSD2
 70
     0
  9
$DIMTOLJ
 70
     0
  9
$DIMTZIN
 70
     8
  9
$DIMALTZ
 70
     0
  9
$DIMALTTZ
 70
     0
  9
$DIMUPT
 70
     1
  9
$DIMDEC
 70
     2
  9
$DIMTDEC
 70
     2
  9
$DIMALTU
 70
     2
  9
$DIMALTTD
 70
     3
  9
$DIMTXSTY
  7
STANDARD
  9
$DIMAUNIT
 70
     0
  9
$DIMADEC
 70
     1
  9
$DIMALTRND
 40
0.0
  9
$DIMAZIN
 70
     2
  9
$DIMDSEP
 70
    46
  9
$DIMATFIT
 70
     0
  9
$DIMFRAC
 70
     0
  9
$DIMLDRBLK
  1
Open30
  9
$DIMLUNIT
 70
     2
  9
$DIMLWD
 70
    -2
  9
$DIMLWE
 70
    -2
  9
$DIMTMOVE
 70
     0
  9
$LUNITS
 70
     2
  9
$LUPREC
 70
     4
  9
$SKETCHINC
 40
0.1
  9
$FILLETRAD
 40
0.0
  9
$AUNITS
 70
     0
  9
$AUPREC
 70
     0
  9
$MENU
  1
.
  9
$ELEVATION
 40
0.0
  9
$PELEVATION
 40
0.0
  9
$THICKNESS
 40
0.0
  9
$LIMCHECK
 70
     0
  9
$CHAMFERA
 40
0.0
  9
$CHAMFERB
 40
0.0
  9
$CHAMFERC
 40
0.0
  9
$CHAMFERD
 40
0.0
  9
$SKPOLY
 70
     0
  9
$TDCREATE
 40
2456071.608396829
  9
$TDUCREATE
 40
2456071.233396829
  9
$TDUPDATE
 40
2457402.622368588
  9
$TDUUPDATE
 40
2457402.247368588
  9
$TDINDWG
 40
0.5218751042
  9
$TDUSRTIMER
 40
0.5218738426
  9
$USRTIMER
 70
     1
  9
$ANGBASE
 50
0.0
  9
$ANGDIR
 70
     0
  9
$PDMODE
 70
     0
  9
$PDSIZE
 40
0.0
  9
$PLINEWID
 40
0.0
  9
$SPLFRAME
 70
     0
  9
$SPLINETYPE
 70
     6
  9
$SPLINESEGS
 70
     8
  9
$HANDSEED
  5
1FF3
  9
$SURFTAB1
 70
     6
  9
$SURFTAB2
 70
     6
  9
$SURFTYPE
 70
     6
  9
$SURFU
 70
     6
  9
$SURFV
 70
     6
  9
$UCSBASE
  2

  9
$UCSNAME
  2

  9
$UCSORG
 10
0.0
 20
0.0
 30
0.0
  9
$UCSXDIR
 10
1.0
 20
0.0
 30
0.0
  9
$UCSYDIR
 10
0.0
 20
1.0
 30
0.0
  9
$UCSORTHOREF
  2

  9
$UCSORTHOVIEW
 70
     0
  9
$UCSORGTOP
 10
0.0
 20
0.0
 30
0.0
  9
$UCSORGBOTTOM
 10
0.0
 20
0.0
 30
0.0
  9
$UCSORGLEFT
 10
0.0
 20
0.0
 30
0.0
  9
$UCSORGRIGHT
 10
0.0
 20
0.0
 30
0.0
  9
$UCSORGFRONT
 10
0.0
 20
0.0
 30
0.0
  9
$UCSORGBACK
 10
0.0
 20
0.0
 30
0.0
  9
$PUCSBASE
  2

  9
$PUCSNAME
  2

  9
$PUCSORG
 10
0.0
 20
0.0
 30
0.0
  9
$PUCSXDIR
 10
1.0
 20
0.0
 30
0.0
  9
$PUCSYDIR
 10
0.0
 20
1.0
 30
0.0
  9
$PUCSORTHOREF
  2

  9
$PUCSORTHOVIEW
 70
     0
  9
$PUCSORGTOP
 10
0.0
 20
0.0
 30
0.0
  9
$PUCSORGBOTTOM
 10
0.0
 20
0.0
 30
0.0
  9
$PUCSORGLEFT
 10
0.0
 20
0.0
 30
0.0
  9
$PUCSORGRIGHT
 10
0.0
 20
0.0
 30
0.0
  9
$PUCSORGFRONT
 10
0.0
 20
0.0
 30
0.0
  9
$PUCSORGBACK
 10
0.0
 20
0.0
 30
0.0
  9
$USERI1
 70
     0
  9
$USERI2
 70
     0
  9
$USERI3
 70
     0
  9
$USERI4
 70
     0
  9
$USERI5
 70
     0
  9
$USERR1
 40
0.0
  9
$USERR2
 40
0.0
  9
$USERR3
 40
0.0
  9
$USERR4
 40
0.0
  9
$USERR5
 40
0.0
  9
$WORLDVIEW
 70
     1
  9
$SHADEDGE
 70
     3
  9
$SHADEDIF
 70
    70
  9
$TILEMODE
 70
     1
  9
$MAXACTVP
 70
    64
  9
$PINSBASE
 10
0.0
 20
0.0
 30
0.0
  9
$PLIMCHECK
 70
     0
  9
$PEXTMIN
 10
1.000000000000000E+20
 20
1.000000000000000E+20
 30
1.000000000000000E+20
  9
$PEXTMAX
 10
-1.000000000000000E+20
 20
-1.000000000000000E+20
 30
-1.000000000000000E+20
  9
$PLIMMIN
 10
0.0
 20
0.0
  9
$PLIMMAX
 10
12.0
 20
9.0
  9
$UNITMODE
 70
     0
  9
$VISRETAIN
 70
     1
  9
$PLINEGEN
 70
     0
  9
$PSLTSCALE
 70
     1
  9
$TREEDEPTH
 70
  3020
  9
$CMLSTYLE
  2
Standard
  9
$CMLJUST
 70
     0
  9
$CMLSCALE
 40
1.0
  9
$PROXYGRAPHICS
 70
     1
  9
$MEASUREMENT
 70
     0
  9
$CELWEIGHT
370
    -1
  9
$ENDCAPS
280
     0
  9
$JOINSTYLE
280
     0
  9
$LWDISPLAY
290
     0
  9
$INSUNITS
 70
     0
  9
$HYPERLINKBASE
  1

  9
$STYLESHEET
  1
N-PLOT.CTB
  9
$XEDIT
290
     1
  9
$CEPSNTYPE
380
     0
  9
$PSTYLEMODE
290
     1
  9
$FINGERPRINTGUID
  2
{48D67698-8D6C-415F-A3E3-CB930EF3D719}
  9
$VERSIONGUID
  2
{310D2A0A-1BFC-4A13-861E-80C0DBB800FC}
  9
$EXTNAMES
290
     1
  9
$PSVPSCALE
 40
0.0
  9
$OLESTARTUP
290
     0
  0
ENDSEC
  0
SECTION
  2
CLASSES
  0
CLASS
  1
ACDBDICTIONARYWDFLT
  2
AcDbDictionaryWithDefault
  3
ObjectDBX Classes
 90
        0
280
     0
281
     0
  0
CLASS
  1
MATERIAL
  2
AcDbMaterial
  3
ObjectDBX Classes
 90
     1153
280
     0
281
     0
  0
CLASS
  1
VISUALSTYLE
  2
AcDbVisualStyle
  3
ObjectDBX Classes
 90
     4095
280
     0
281
     0
  0
CLASS
  1
SCALE
  2
AcDbScale
  3
ObjectDBX Classes
 90
     1153
280
     0
281
     0
  0
CLASS
  1
TABLESTYLE
  2
AcDbTableStyle
  3
ObjectDBX Classes
 90
     4095
280
     0
281
     0
  0
CLASS
  1
MLEADERSTYLE
  2
AcDbMLeaderStyle
  3
ACDB_MLEADERSTYLE_CLASS
 90
     4095
280
     0
281
     0
  0
CLASS
  1
SORTENTSTABLE
  2
AcDbSortentsTable
  3
ObjectDBX Classes
 90
        0
280
     0
281
     0
  0
CLASS
  1
DICTIONARYVAR
  2
AcDbDictionaryVar
  3
ObjectDBX Classes
 90
        0
280
     0
281
     0
  0
CLASS
  1
CELLSTYLEMAP
  2
AcDbCellStyleMap
  3
ObjectDBX Classes
 90
     1152
280
     0
281
     0
  0
CLASS
  1
ACDBPLACEHOLDER
  2
AcDbPlaceHolder
  3
ObjectDBX Classes
 90
        0
280
     0
281
     0
  0
CLASS
  1
LAYOUT
  2
AcDbLayout
  3
ObjectDBX Classes
 90
        0
280
     0
281
     0
  0
CLASS
  1
AEC_REFEDIT_STATUS_TRACKER
  2
AecDbRefEditStatusTracker
  3
AecArchBase60|Product Desc: Autodesk Architectural Desktop 2007 |Company: Autodesk,Inc. |WEB Address: www.autodesk.com
 90
      129
280
     0
281
     0
  0
CLASS
  1
NPOCOLLECTION
  2
AcDbImpNonPersistentObjectsCollection
  3
ObjectDBX Classes
 90
     1153
280
     0
281
     0
  0
ENDSEC
  0
SECTION
  2
TABLES
  0
TABLE
  2
VPORT
  5
8
330
0
100
AcDbSymbolTable
 70
     1
  0
VPORT
  5
8B
330
8
100
AcDbSymbolTableRecord
100
AcDbViewportTableRecord
  2
*Active
 70
     0
 10
0.0
 20
0.0
 11
1.0
 21
1.0
 12
442.3452872421641
 22
40.0327626635786
 13
0.0
 23
0.0
 14
1.0
 24
1.0
 15
0.0
 25
0.0
 16
0.0
 26
0.0
 36
1.0
 17
0.0
 27
0.0
 37
0.0
 40
363.6458685095237
 41
1.602620087336244
 42
50.0
 43
0.0
 44
0.0
 50
0.0
 51
0.0
 71
     0
 72
   100
 73
     1
 74
     1
 75
     0
 76
     0
 77
     0
 78
     0
281
     0
 65
     1
110
0.0
120
0.0
130
0.0
111
1.0
121
0.0
131
0.0
112
0.0
122
1.0
132
0.0
 79
     0
146
0.0
  0
ENDTAB
  0
TABLE
  2
LTYPE
  5
5
330
0
100
AcDbSymbolTable
 70
     3
  0
LTYPE
  5
5A
330
5
100
AcDbSymbolTableRecord
100
AcDbLinetypeTableRecord
  2
ByBlock
 70
     0
  3

 72
    65
 73
     0
 40
0.0
  0
LTYPE
  5
5B
330
5
100
AcDbSymbolTableRecord
100
AcDbLinetypeTableRecord
  2
ByLayer
 70
     0
  3

 72
    65
 73
     0
 40
0.0
  0
LTYPE
  5
5C
330
5
100
AcDbSymbolTableRecord
100
AcDbLinetypeTableRecord
  2
CONTINUOUS
 70
     0
  3
Solid-line
 72
    65
 73
     0
 40
0.0
  0
LTYPE
  5
72
330
5
100
AcDbSymbolTableRecord
100
AcDbLinetypeTableRecord
  2
CENTER
 70
     0
  3
CENTER
 72
    65
 73
     4
 40
2.0
 49
1.25
 74
     0
 49
-0.25
 74
     0
 49
0.25
 74
     0
 49
-0.25
 74
     0
  0
ENDTAB
  0
TABLE
  2
LAYER
  5
2
102
{ACAD_XDICTIONARY
360
41F
102
}
330
0
100
AcDbSymbolTable
 70
     2
  0
LAYER
  5
54
102
{ACAD_XDICTIONARY
360
5A0
102
}
330
2
100
AcDbSymbolTableRecord
100
AcDbLayerTableRecord
  2
0
 70
     0
 62
     7
  6
CONTINUOUS
370
    -3
390
F
  0
LAYER
  5
40A
330
2
100
AcDbSymbolTableRecord
100
AcDbLayerTableRecord
  2
Defpoints
 70
     0
 62
     7
  6
CONTINUOUS
290
     0
370
    -3
390
F
  0
ENDTAB
  0
TABLE
  2
STYLE
  5
3
330
0
100
AcDbSymbolTable
 70
     6
  0
STYLE
  5
55
330
3
100
AcDbSymbolTableRecord
100
AcDbTextStyleTableRecord
  2
STANDARD
 70
     0
 40
0.0
 41
1.0
 50
0.0
 71
     0
 42
0.2
  3
TXT
  4
BIGFONT
  0
STYLE
  5
40B
330
3
100
AcDbSymbolTableRecord
100
AcDbTextStyleTableRecord
  2
高3.2
 70
     0
 40
3.2
 41
1.0
 50
0.0
 71
     0
 42
3.2
  3
txt.shx
  4
bigfont.shx
  0
STYLE
  5
40C
330
3
100
AcDbSymbolTableRecord
100
AcDbTextStyleTableRecord
  2
高6.3
 70
     0
 40
6.299999999999998
 41
1.0
 50
0.0
 71
     0
 42
6.299999999999998
  3
txt.shx
  4
bigfont.shx
  0
STYLE
  5
40D
330
3
100
AcDbSymbolTableRecord
100
AcDbTextStyleTableRecord
  2
高2.5
 70
     0
 40
2.5
 41
1.0
 50
0.0
 71
     0
 42
0.2
  3
txt.shx
  4
bigfont.shx
  0
STYLE
  5
40E
330
3
100
AcDbSymbolTableRecord
100
AcDbTextStyleTableRecord
  2
高4.5
 70
     0
 40
4.5
 41
1.0
 50
0.0
 71
     0
 42
6.299999999999998
  3
txt.shx
  4
bigfont.shx
  0
STYLE
  5
40F
330
3
100
AcDbSymbolTableRecord
100
AcDbTextStyleTableRecord
  2
高2
 70
     0
 40
2.0
 41
1.0
 50
0.0
 71
     0
 42
2.0
  3
txt.shx
  4
bigfont.shx
  0
ENDTAB
  0
TABLE
  2
VIEW
  5
6
330
0
100
AcDbSymbolTable
 70
     0
  0
ENDTAB
  0
TABLE
  2
UCS
  5
7
330
0
100
AcDbSymbolTable
 70
     0
  0
ENDTAB
  0
TABLE
  2
APPID
  5
9
330
0
100
AcDbSymbolTable
 70
    12
  0
APPID
  5
56
330
9
100
AcDbSymbolTableRecord
100
AcDbRegAppTableRecord
  2
ACAD
 70
     0
  0
APPID
  5
5D
330
9
100
AcDbSymbolTableRecord
100
AcDbRegAppTableRecord
  2
AcadAnnotative
 70
     0
  0
APPID
  5
41A
330
9
100
AcDbSymbolTableRecord
100
AcDbRegAppTableRecord
  2
ACAD_DSTYLE_DIMJOGGED_JOGANGLE_SYMBOL
 70
     0
  0
APPID
  5
41B
330
9
100
AcDbSymbolTableRecord
100
AcDbRegAppTableRecord
  2
ACAD_DSTYLE_DIMJAG
 70
     0
  0
APPID
  5
41C
330
9
100
AcDbSymbolTableRecord
100
AcDbRegAppTableRecord
  2
ACAD_DSTYLE_DIMBREAK
 70
     0
  0
APPID
  5
41D
330
9
100
AcDbSymbolTableRecord
100
AcDbRegAppTableRecord
  2
ACAD_DSTYLE_DIMTALN
 70
     0
  0
APPID
  5
531
330
9
100
AcDbSymbolTableRecord
100
AcDbRegAppTableRecord
  2
ACAD_PSEXT
 70
     0
  0
APPID
  5
58F
330
9
100
AcDbSymbolTableRecord
100
AcDbRegAppTableRecord
  2
ACAD_EXEMPT_FROM_CAD_STANDARDS
 70
     0
  0
APPID
  5
5E8
330
9
100
AcDbSymbolTableRecord
100
AcDbRegAppTableRecord
  2
ACAD_MLEADERVER
 70
     0
  0
APPID
  5
5ED
330
9
100
AcDbSymbolTableRecord
100
AcDbRegAppTableRecord
  2
ACAD_DSTYLE_DIMARC_LENGTH_SYMBOL
 70
     0
  0
APPID
  5
5EE
330
9
100
AcDbSymbolTableRecord
100
AcDbRegAppTableRecord
  2
ACAD_DSTYLE_DIMEXT_LENGTH
 70
     0
  0
APPID
  5
CD4
330
9
100
AcDbSymbolTableRecord
100
AcDbRegAppTableRecord
  2
ACAD_DSTYLE_DIMRADIAL_EXTENSION
 70
     0
  0
ENDTAB
  0
TABLE
  2
DIMSTYLE
  5
A
330
0
100
AcDbSymbolTable
 70
     2
100
AcDbDimStyleTable
 71
     1
340
410
  0
DIMSTYLE
105
57
330
A
100
AcDbSymbolTableRecord
100
AcDbDimStyleTableRecord
  2
Standard
 70
     0
340
55
  0
DIMSTYLE
105
410
330
A
100
AcDbSymbolTableRecord
100
AcDbDimStyleTableRecord
  2
1：1
 70
     0
 41
2.5
 42
0.25
 43
0.2
 44
1.25
 73
     0
 74
     0
 77
     3
 78
     8
 79
     2
140
3.0
141
0.0
143
0.03937007874016
147
0.625
171
     3
172
     1
178
     4
179
     1
271
     2
272
     2
274
     3
283
     0
284
     8
288
     1
289
     0
340
55
341
37A
342
37A
1001
ACAD_DSTYLE_DIMARC_LENGTH_SYMBOL
1070
   379
1070
     2
1001
ACAD_DSTYLE_DIMEXT_LENGTH
1070
   378
1040
1.25
1001
ACAD_DSTYLE_DIMJOGGED_JOGANGLE_SYMBOL
1070
   384
1040
1.570796326794896
  0
ENDTAB
  0
TABLE
  2
BLOCK_RECORD
  5
1
330
0
100
AcDbSymbolTable
 70
    23
  0
BLOCK_RECORD
  5
6B
102
{ACAD_XDICTIONARY
360
7CB
102
}
330
1
100
AcDbSymbolTableRecord
100
AcDbBlockTableRecord
  2
*Model_Space
340
6E
  0
BLOCK_RECORD
  5
67
330
1
100
AcDbSymbolTableRecord
100
AcDbBlockTableRecord
  2
*Paper_Space
340
6A
  0
BLOCK_RECORD
  5
37A
330
1
100
AcDbSymbolTableRecord
100
AcDbBlockTableRecord
  2
_Open30
340
0
102
{BLKREFS
331
1448
331
1449
331
1451
331
1452
331
145A
331
145B
331
1463
331
1464
331
146C
331
146D
331
15D3
331
15D4
331
15DC
331
15DD
331
15E5
331
15E6
331
15EE
331
15EF
331
15F7
331
15F8
331
1BE9
331
1BEA
331
1BF2
331
1BF3
331
1BFB
331
1BFC
331
1C04
331
1C05
331
1C0D
331
1C0E
331
1C16
331
1C17
331
1EAF
331
1EB0
331
1EB8
331
1EB9
331
1EC1
331
1EC2
331
1ECA
331
1ECB
331
1ED3
331
1ED4
331
1EDC
331
1EDD
102
}
  0
BLOCK_RECORD
  5
F6F
330
1
100
AcDbSymbolTableRecord
100
AcDbBlockTableRecord
  2
*D1
340
0
  0
BLOCK_RECORD
  5
F7B
330
1
100
AcDbSymbolTableRecord
100
AcDbBlockTableRecord
  2
*D2
340
0
  0
BLOCK_RECORD
  5
F87
330
1
100
AcDbSymbolTableRecord
100
AcDbBlockTableRecord
  2
*D3
340
0
  0
BLOCK_RECORD
  5
F93
330
1
100
AcDbSymbolTableRecord
100
AcDbBlockTableRecord
  2
*D4
340
0
  0
BLOCK_RECORD
  5
F9F
330
1
100
AcDbSymbolTableRecord
100
AcDbBlockTableRecord
  2
*D5
340
0
  0
BLOCK_RECORD
  5
1473
330
1
100
AcDbSymbolTableRecord
100
AcDbBlockTableRecord
  2
*D6
340
0
  0
BLOCK_RECORD
  5
1480
330
1
100
AcDbSymbolTableRecord
100
AcDbBlockTableRecord
  2
*D7
340
0
  0
BLOCK_RECORD
  5
148D
330
1
100
AcDbSymbolTableRecord
100
AcDbBlockTableRecord
  2
*D8
340
0
  0
BLOCK_RECORD
  5
14A3
330
1
100
AcDbSymbolTableRecord
100
AcDbBlockTableRecord
  2
*D9
340
0
  0
BLOCK_RECORD
  5
14D5
330
1
100
AcDbSymbolTableRecord
100
AcDbBlockTableRecord
  2
*D10
340
0
  0
BLOCK_RECORD
  5
16F5
330
1
100
AcDbSymbolTableRecord
100
AcDbBlockTableRecord
  2
*D11
340
0
  0
BLOCK_RECORD
  5
1701
330
1
100
AcDbSymbolTableRecord
100
AcDbBlockTableRecord
  2
*D12
340
0
  0
BLOCK_RECORD
  5
170D
330
1
100
AcDbSymbolTableRecord
100
AcDbBlockTableRecord
  2
*D13
340
0
  0
BLOCK_RECORD
  5
1719
330
1
100
AcDbSymbolTableRecord
100
AcDbBlockTableRecord
  2
*D14
340
0
  0
BLOCK_RECORD
  5
1725
330
1
100
AcDbSymbolTableRecord
100
AcDbBlockTableRecord
  2
*D15
340
0
  0
BLOCK_RECORD
  5
1780
330
1
100
AcDbSymbolTableRecord
100
AcDbBlockTableRecord
  2
*D16
340
0
  0
BLOCK_RECORD
  5
1A05
330
1
100
AcDbSymbolTableRecord
100
AcDbBlockTableRecord
  2
*D17
340
0
  0
BLOCK_RECORD
  5
1A11
330
1
100
AcDbSymbolTableRecord
100
AcDbBlockTableRecord
  2
*D18
340
0
  0
BLOCK_RECORD
  5
1A1D
330
1
100
AcDbSymbolTableRecord
100
AcDbBlockTableRecord
  2
*D19
340
0
  0
BLOCK_RECORD
  5
1A29
330
1
100
AcDbSymbolTableRecord
100
AcDbBlockTableRecord
  2
*D20
340
0
  0
BLOCK_RECORD
  5
1A35
330
1
100
AcDbSymbolTableRecord
100
AcDbBlockTableRecord
  2
*D21
340
0
  0
BLOCK_RECORD
  5
1A41
330
1
100
AcDbSymbolTableRecord
100
AcDbBlockTableRecord
  2
*D22
340
0
  0
ENDTAB
  0
ENDSEC
  0
SECTION
  2
BLOCKS
  0
BLOCK
  5
6C
330
6B
100
AcDbEntity
  8
0
100
AcDbBlockBegin
  2
*Model_Space
 70
     0
 10
0.0
 20
0.0
 30
0.0
  3
*Model_Space
  1

  0
ENDBLK
  5
6D
330
6B
100
AcDbEntity
  8
0
100
AcDbBlockEnd
  0
BLOCK
  5
68
330
67
100
AcDbEntity
 67
     1
  8
0
100
AcDbBlockBegin
  2
*Paper_Space
 70
     0
 10
0.0
 20
0.0
 30
0.0
  3
*Paper_Space
  1

  0
ENDBLK
  5
69
330
67
100
AcDbEntity
 67
     1
  8
0
100
AcDbBlockEnd
  0
BLOCK
  5
37B
330
37A
100
AcDbEntity
  8
0
100
AcDbBlockBegin
  2
_Open30
 70
     0
 10
0.0
 20
0.0
 30
0.0
  3
_Open30
  1

  0
LINE
  5
37C
330
37A
100
AcDbEntity
  8
0
  6
ByBlock
 62
     0
370
    -2
100
AcDbLine
 10
-1.0
 20
0.267949
 30
0.0
 11
0.0
 21
0.0
 31
0.0
  0
LINE
  5
37D
330
37A
100
AcDbEntity
  8
0
  6
ByBlock
 62
     0
370
    -2
100
AcDbLine
 10
0.0
 20
0.0
 30
0.0
 11
-1.0
 21
-0.267949
 31
0.0
  0
LINE
  5
37E
330
37A
100
AcDbEntity
  8
0
  6
ByBlock
 62
     0
370
    -2
100
AcDbLine
 10
0.0
 20
0.0
 30
0.0
 11
-1.0
 21
0.0
 31
0.0
  0
ENDBLK
  5
37F
330
37A
100
AcDbEntity
  8
0
100
AcDbBlockEnd
  0
BLOCK
  5
F70
330
F6F
100
AcDbEntity
  8
0
100
AcDbBlockBegin
  2
*D1
 70
     1
 10
0.0
 20
0.0
 30
0.0
  3
*D1
  1

  0
LINE
  5
1460
330
F6F
100
AcDbEntity
  8
0
  6
Continuous
 62
     0
370
    -2
100
AcDbLine
 10
264.5410605835045
 20
98.90696400000001
 30
0.0
 11
264.5410605835045
 21
125.2495344348733
 31
0.0
  0
LINE
  5
1461
330
F6F
100
AcDbEntity
  8
0
  6
Continuous
 62
     0
370
    -2
100
AcDbLine
 10
205.5410605835045
 20
98.90696400000001
 30
0.0
 11
205.5410605835045
 21
125.2495344348733
 31
0.0
  0
LINE
  5
1462
330
F6F
100
AcDbEntity
  8
0
  6
Continuous
 62
     0
370
    -2
100
AcDbLine
 10
262.0410605835045
 20
123.9995344348733
 30
0.0
 11
208.0410605835045
 21
123.9995344348733
 31
0.0
  0
INSERT
  5
1463
330
F6F
100
AcDbEntity
  8
0
  6
Continuous
 62
     0
370
    -2
100
AcDbBlockReference
  2
_Open30
 10
264.5410605835045
 20
123.9995344348733
 30
0.0
 41
2.5
 42
2.5
 43
2.5
  0
INSERT
  5
1464
330
F6F
100
AcDbEntity
  8
0
  6
Continuous
 62
     0
370
    -2
100
AcDbBlockReference
  2
_Open30
 10
205.5410605835045
 20
123.9995344348733
 30
0.0
 41
2.5
 42
2.5
 43
2.5
 50
180.0
  0
MTEXT
  5
1465
330
F6F
100
AcDbEntity
  8
0
  6
Continuous
 62
     4
100
AcDbMText
 10
234.7836193204299
 20
126.1245344348733
 30
0.0
 40
3.0
 41
0.0
 71
     5
 72
     1
  1
%%C59
 73
     1
 44
1.0
1001
ACAD
1000
MTEXTBEGIN
1070
    73
1070
     1
1070
    44
1040
1.0
1070
    74
1070
     0
1000
MTEXTEND
  0
POINT
  5
1466
330
F6F
100
AcDbEntity
  8
Defpoints
  6
Continuous
 62
     0
100
AcDbPoint
 10
264.5410605835045
 20
98.656964
 30
0.0
  0
POINT
  5
1467
330
F6F
100
AcDbEntity
  8
Defpoints
  6
Continuous
 62
     0
100
AcDbPoint
 10
205.5410605835045
 20
98.656964
 30
0.0
  0
POINT
  5
1468
330
F6F
100
AcDbEntity
  8
Defpoints
  6
Continuous
 62
     0
100
AcDbPoint
 10
205.5410605835045
 20
123.9995344348733
 30
0.0
  0
ENDBLK
  5
F71
330
F6F
100
AcDbEntity
  8
0
100
AcDbBlockEnd
  0
BLOCK
  5
F7C
330
F7B
100
AcDbEntity
  8
0
100
AcDbBlockBegin
  2
*D2
 70
     1
 10
0.0
 20
0.0
 30
0.0
  3
*D2
  1

  0
LINE
  5
1469
330
F7B
100
AcDbEntity
  8
0
  6
Continuous
 62
     0
370
    -2
100
AcDbLine
 10
211.0910605835045
 20
21.15696400000002
 30
0.0
 11
188.8614873749029
 21
21.15696400000002
 31
0.0
  0
LINE
  5
146A
330
F7B
100
AcDbEntity
  8
0
  6
Continuous
 62
     0
370
    -2
100
AcDbLine
 10
234.7910605835045
 20
-41.84303599999998
 30
0.0
 11
188.8614873749029
 21
-41.84303599999997
 31
0.0
  0
LINE
  5
146B
330
F7B
100
AcDbEntity
  8
0
  6
Continuous
 62
     0
370
    -2
100
AcDbLine
 10
190.1114873749029
 20
18.65696400000002
 30
0.0
 11
190.1114873749029
 21
-39.34303599999997
 31
0.0
  0
INSERT
  5
146C
330
F7B
100
AcDbEntity
  8
0
  6
Continuous
 62
     0
370
    -2
100
AcDbBlockReference
  2
_Open30
 10
190.1114873749029
 20
21.15696400000002
 30
0.0
 41
2.5
 42
2.5
 43
2.5
 50
90.0
  0
INSERT
  5
146D
330
F7B
100
AcDbEntity
  8
0
  6
Continuous
 62
     0
370
    -2
100
AcDbBlockReference
  2
_Open30
 10
190.1114873749029
 20
-41.84303599999997
 30
0.0
 41
2.5
 42
2.5
 43
2.5
 50
270.0
  0
MTEXT
  5
146E
330
F7B
100
AcDbEntity
  8
0
  6
Continuous
 62
     4
100
AcDbMText
 10
187.9864873749029
 20
-10.34303599999996
 30
0.0
 40
3.0
 41
0.0
 71
     5
 72
     1
  1
63
 11
0.0000000000000001
 21
1.0
 31
0.0
 73
     1
 44
1.0
1001
ACAD
1000
MTEXTBEGIN
1070
    73
1070
     1
1070
    44
1040
1.0
1070
    74
1070
     0
1000
MTEXTEND
  0
POINT
  5
146F
330
F7B
100
AcDbEntity
  8
Defpoints
  6
Continuous
 62
     0
100
AcDbPoint
 10
211.3410605835045
 20
21.15696400000002
 30
0.0
  0
POINT
  5
1470
330
F7B
100
AcDbEntity
  8
Defpoints
  6
Continuous
 62
     0
100
AcDbPoint
 10
235.0410605835045
 20
-41.84303599999998
 30
0.0
  0
POINT
  5
1471
330
F7B
100
AcDbEntity
  8
Defpoints
  6
Continuous
 62
     0
100
AcDbPoint
 10
190.1114873749029
 20
-41.84303599999997
 30
0.0
  0
ENDBLK
  5
F7D
330
F7B
100
AcDbEntity
  8
0
100
AcDbBlockEnd
  0
BLOCK
  5
F88
330
F87
100
AcDbEntity
  8
0
100
AcDbBlockBegin
  2
*D3
 70
     1
 10
0.0
 20
0.0
 30
0.0
  3
*D3
  1

  0
LINE
  5
1445
330
F87
100
AcDbEntity
  8
0
 62
     0
370
    -2
100
AcDbLine
 10
234.7910605835045
 20
-41.84303599999998
 30
0.0
 11
182.337999833886
 21
-41.84303599999997
 31
0.0
  0
LINE
  5
1446
330
F87
100
AcDbEntity
  8
0
 62
     0
370
    -2
100
AcDbLine
 10
234.7910605835045
 20
109.156964
 30
0.0
 11
182.3379998338861
 21
109.156964
 31
0.0
  0
LINE
  5
1447
330
F87
100
AcDbEntity
  8
0
 62
     0
370
    -2
100
AcDbLine
 10
183.587999833886
 20
-39.34303599999997
 30
0.0
 11
183.587999833886
 21
106.656964
 31
0.0
  0
INSERT
  5
1448
330
F87
100
AcDbEntity
  8
0
 62
     0
370
    -2
100
AcDbBlockReference
  2
_Open30
 10
183.587999833886
 20
-41.84303599999997
 30
0.0
 41
2.5
 42
2.5
 43
2.5
 50
270.0
  0
INSERT
  5
1449
330
F87
100
AcDbEntity
  8
0
 62
     0
370
    -2
100
AcDbBlockReference
  2
_Open30
 10
183.587999833886
 20
109.156964
 30
0.0
 41
2.5
 42
2.5
 43
2.5
 50
90.0
  0
MTEXT
  5
144A
330
F87
100
AcDbEntity
  8
0
 62
     4
100
AcDbMText
 10
181.462999833886
 20
42.65696400000011
 30
0.0
 40
3.0
 41
0.0
 71
     5
 72
     1
  1
151
 11
0.0000000000000001
 21
1.0
 31
0.0
 73
     1
 44
1.0
1001
ACAD
1000
MTEXTBEGIN
1070
    73
1070
     1
1070
    44
1040
1.0
1070
    74
1070
     0
1000
MTEXTEND
  0
POINT
  5
144B
330
F87
100
AcDbEntity
  8
Defpoints
 62
     0
100
AcDbPoint
 10
235.0410605835045
 20
-41.84303599999998
 30
0.0
  0
POINT
  5
144C
330
F87
100
AcDbEntity
  8
Defpoints
 62
     0
100
AcDbPoint
 10
235.0410605835045
 20
109.156964
 30
0.0
  0
POINT
  5
144D
330
F87
100
AcDbEntity
  8
Defpoints
 62
     0
100
AcDbPoint
 10
183.587999833886
 20
109.156964
 30
0.0
  0
ENDBLK
  5
F89
330
F87
100
AcDbEntity
  8
0
100
AcDbBlockEnd
  0
BLOCK
  5
F94
330
F93
100
AcDbEntity
  8
0
100
AcDbBlockBegin
  2
*D4
 70
     1
 10
0.0
 20
0.0
 30
0.0
  3
*D4
  1

  0
LINE
  5
144E
330
F93
100
AcDbEntity
  8
0
 62
     0
370
    -2
100
AcDbLine
 10
220.7910605835045
 20
-16.84303600000004
 30
0.0
 11
195.7524730348886
 21
-16.84303600000003
 31
0.0
  0
LINE
  5
144F
330
F93
100
AcDbEntity
  8
0
 62
     0
370
    -2
100
AcDbLine
 10
211.0910605835045
 20
21.15696400000002
 30
0.0
 11
195.7524730348886
 21
21.15696400000002
 31
0.0
  0
LINE
  5
1450
330
F93
100
AcDbEntity
  8
0
 62
     0
370
    -2
100
AcDbLine
 10
197.0024730348887
 20
-14.34303600000003
 30
0.0
 11
197.0024730348887
 21
18.65696400000002
 31
0.0
  0
INSERT
  5
1451
330
F93
100
AcDbEntity
  8
0
 62
     0
370
    -2
100
AcDbBlockReference
  2
_Open30
 10
197.0024730348887
 20
-16.84303600000003
 30
0.0
 41
2.5
 42
2.5
 43
2.5
 50
270.0
  0
INSERT
  5
1452
330
F93
100
AcDbEntity
  8
0
 62
     0
370
    -2
100
AcDbBlockReference
  2
_Open30
 10
197.0024730348887
 20
21.15696400000002
 30
0.0
 41
2.5
 42
2.5
 43
2.5
 50
90.0
  0
MTEXT
  5
1453
330
F93
100
AcDbEntity
  8
0
 62
     4
100
AcDbMText
 10
194.8774730348887
 20
2.156963999999995
 30
0.0
 40
3.0
 41
0.0
 71
     5
 72
     1
  1
38
 11
0.0000000000000001
 21
1.0
 31
0.0
 73
     1
 44
1.0
1001
ACAD
1000
MTEXTBEGIN
1070
    73
1070
     1
1070
    44
1040
1.0
1070
    74
1070
     0
1000
MTEXTEND
  0
POINT
  5
1454
330
F93
100
AcDbEntity
  8
Defpoints
 62
     0
100
AcDbPoint
 10
221.0410605835045
 20
-16.84303600000004
 30
0.0
  0
POINT
  5
1455
330
F93
100
AcDbEntity
  8
Defpoints
 62
     0
100
AcDbPoint
 10
211.3410605835045
 20
21.15696400000002
 30
0.0
  0
POINT
  5
1456
330
F93
100
AcDbEntity
  8
Defpoints
 62
     0
100
AcDbPoint
 10
197.0024730348887
 20
21.15696400000002
 30
0.0
  0
ENDBLK
  5
F95
330
F93
100
AcDbEntity
  8
0
100
AcDbBlockEnd
  0
BLOCK
  5
FA0
330
F9F
100
AcDbEntity
  8
0
100
AcDbBlockBegin
  2
*D5
 70
     1
 10
0.0
 20
0.0
 30
0.0
  3
*D5
  1

  0
LINE
  5
1457
330
F9F
100
AcDbEntity
  8
0
 62
     0
370
    -2
100
AcDbLine
 10
222.0987105835048
 20
-34.155571
 30
0.0
 11
222.0987105835048
 21
-50.071878
 31
0.0
  0
LINE
  5
1458
330
F9F
100
AcDbEntity
  8
0
 62
     0
370
    -2
100
AcDbLine
 10
248.0410605835045
 20
-34.093035
 30
0.0
 11
248.0410605835045
 21
-50.071878
 31
0.0
  0
LINE
  5
1459
330
F9F
100
AcDbEntity
  8
0
 62
     0
370
    -2
100
AcDbLine
 10
224.5987105835048
 20
-48.821878
 30
0.0
 11
245.5410605835045
 21
-48.821878
 31
0.0
  0
INSERT
  5
145A
330
F9F
100
AcDbEntity
  8
0
 62
     0
370
    -2
100
AcDbBlockReference
  2
_Open30
 10
222.0987105835048
 20
-48.821878
 30
0.0
 41
2.5
 42
2.5
 43
2.5
 50
180.0
  0
INSERT
  5
145B
330
F9F
100
AcDbEntity
  8
0
 62
     0
370
    -2
100
AcDbBlockReference
  2
_Open30
 10
248.0410605835045
 20
-48.821878
 30
0.0
 41
2.5
 42
2.5
 43
2.5
  0
MTEXT
  5
145C
330
F9F
100
AcDbEntity
  8
0
 62
     4
100
AcDbMText
 10
235.0698855835048
 20
-46.69687800000001
 30
0.0
 40
3.0
 41
0.0
 71
     5
 72
     1
  1
E26
 73
     1
 44
1.0
1001
ACAD
1000
MTEXTBEGIN
1070
    73
1070
     1
1070
    44
1040
1.0
1070
    74
1070
     0
1000
MTEXTEND
  0
POINT
  5
145D
330
F9F
100
AcDbEntity
  8
Defpoints
 62
     0
100
AcDbPoint
 10
222.0987105835048
 20
-33.905571
 30
0.0
  0
POINT
  5
145E
330
F9F
100
AcDbEntity
  8
Defpoints
 62
     0
100
AcDbPoint
 10
248.0410605835045
 20
-33.843035
 30
0.0
  0
POINT
  5
145F
330
F9F
100
AcDbEntity
  8
Defpoints
 62
     0
100
AcDbPoint
 10
248.0410605835045
 20
-48.821878
 30
0.0
  0
ENDBLK
  5
FA1
330
F9F
100
AcDbEntity
  8
0
100
AcDbBlockEnd
  0
BLOCK
  5
1474
330
1473
100
AcDbEntity
  8
0
100
AcDbBlockBegin
  2
*D6
 70
     1
 10
0.0
 20
0.0
 30
0.0
  3
*D6
  1

  0
LINE
  5
15D0
330
1473
100
AcDbEntity
  8
0
  6
Continuous
 62
     0
370
    -2
100
AcDbLine
 10
372.4151819716326
 20
-41.84303599999998
 30
0.0
 11
323.0115062638547
 21
-41.84303599999998
 31
0.0
  0
LINE
  5
15D1
330
1473
100
AcDbEntity
  8
0
  6
Continuous
 62
     0
370
    -2
100
AcDbLine
 10
372.4151819716326
 20
111.156964
 30
0.0
 11
323.0115062638547
 21
111.156964
 31
0.0
  0
LINE
  5
15D2
330
1473
100
AcDbEntity
  8
0
  6
Continuous
 62
     0
370
    -2
100
AcDbLine
 10
324.2615062638547
 20
-39.34303599999998
 30
0.0
 11
324.2615062638547
 21
108.656964
 31
0.0
  0
INSERT
  5
15D3
330
1473
100
AcDbEntity
  8
0
  6
Continuous
 62
     0
370
    -2
100
AcDbBlockReference
  2
_Open30
 10
324.2615062638547
 20
-41.84303599999998
 30
0.0
 41
2.5
 42
2.5
 43
2.5
 50
270.0
  0
INSERT
  5
15D4
330
1473
100
AcDbEntity
  8
0
  6
Continuous
 62
     0
370
    -2
100
AcDbBlockReference
  2
_Open30
 10
324.2615062638547
 20
111.156964
 30
0.0
 41
2.5
 42
2.5
 43
2.5
 50
90.0
  0
MTEXT
  5
15D5
330
1473
100
AcDbEntity
  8
0
  6
Continuous
 62
     4
100
AcDbMText
 10
322.1365062638547
 20
35.48291211720198
 30
0.0
 40
3.0
 41
0.0
 71
     5
 72
     1
  1
153
 11
0.0000000000000001
 21
1.0
 31
0.0
 73
     1
 44
1.0
1001
ACAD
1000
MTEXTBEGIN
1070
    73
1070
     1
1070
    44
1040
1.0
1070
    74
1070
     0
1000
MTEXTEND
  0
POINT
  5
15D6
330
1473
100
AcDbEntity
  8
Defpoints
  6
Continuous
 62
     0
100
AcDbPoint
 10
372.6651819716326
 20
-41.84303599999998
 30
0.0
  0
POINT
  5
15D7
330
1473
100
AcDbEntity
  8
Defpoints
  6
Continuous
 62
     0
100
AcDbPoint
 10
372.6651819716326
 20
111.156964
 30
0.0
  0
POINT
  5
15D8
330
1473
100
AcDbEntity
  8
Defpoints
  6
Continuous
 62
     0
100
AcDbPoint
 10
324.2615062638547
 20
111.156964
 30
0.0
  0
ENDBLK
  5
1475
330
1473
100
AcDbEntity
  8
0
100
AcDbBlockEnd
  0
BLOCK
  5
1481
330
1480
100
AcDbEntity
  8
0
100
AcDbBlockBegin
  2
*D7
 70
     1
 10
0.0
 20
0.0
 30
0.0
  3
*D7
  1

  0
LINE
  5
15D9
330
1480
100
AcDbEntity
  8
0
  6
Continuous
 62
     0
370
    -2
100
AcDbLine
 10
356.9151819716326
 20
-15.343036
 30
0.0
 11
340.1808328700599
 21
-15.34303599999999
 31
0.0
  0
LINE
  5
15DA
330
1480
100
AcDbEntity
  8
0
  6
Continuous
 62
     0
370
    -2
100
AcDbLine
 10
349.6151819716327
 20
20.156964
 30
0.0
 11
340.1808328700599
 21
20.15696400000001
 31
0.0
  0
LINE
  5
15DB
330
1480
100
AcDbEntity
  8
0
  6
Continuous
 62
     0
370
    -2
100
AcDbLine
 10
341.4308328700599
 20
-12.84303599999999
 30
0.0
 11
341.4308328700599
 21
17.656964
 31
0.0
  0
INSERT
  5
15DC
330
1480
100
AcDbEntity
  8
0
  6
Continuous
 62
     0
370
    -2
100
AcDbBlockReference
  2
_Open30
 10
341.4308328700599
 20
-15.34303599999999
 30
0.0
 41
2.5
 42
2.5
 43
2.5
 50
270.0
  0
INSERT
  5
15DD
330
1480
100
AcDbEntity
  8
0
  6
Continuous
 62
     0
370
    -2
100
AcDbBlockReference
  2
_Open30
 10
341.4308328700599
 20
20.15696400000001
 30
0.0
 41
2.5
 42
2.5
 43
2.5
 50
90.0
  0
MTEXT
  5
15DE
330
1480
100
AcDbEntity
  8
0
  6
Continuous
 62
     4
100
AcDbMText
 10
339.3058328700599
 20
1.796063995718211
 30
0.0
 40
3.0
 41
0.0
 71
     5
 72
     1
  1
35.5
 11
0.0000000000000001
 21
1.0
 31
0.0
 73
     1
 44
1.0
1001
ACAD
1000
MTEXTBEGIN
1070
    73
1070
     1
1070
    44
1040
1.0
1070
    74
1070
     0
1000
MTEXTEND
  0
POINT
  5
15DF
330
1480
100
AcDbEntity
  8
Defpoints
  6
Continuous
 62
     0
100
AcDbPoint
 10
357.1651819716326
 20
-15.343036
 30
0.0
  0
POINT
  5
15E0
330
1480
100
AcDbEntity
  8
Defpoints
  6
Continuous
 62
     0
100
AcDbPoint
 10
349.8651819716326
 20
20.156964
 30
0.0
  0
POINT
  5
15E1
330
1480
100
AcDbEntity
  8
Defpoints
  6
Continuous
 62
     0
100
AcDbPoint
 10
341.4308328700599
 20
20.15696400000001
 30
0.0
  0
ENDBLK
  5
1482
330
1480
100
AcDbEntity
  8
0
100
AcDbBlockEnd
  0
BLOCK
  5
148E
330
148D
100
AcDbEntity
  8
0
100
AcDbBlockBegin
  2
*D8
 70
     1
 10
0.0
 20
0.0
 30
0.0
  3
*D8
  1

  0
LINE
  5
15E2
330
148D
100
AcDbEntity
  8
0
  6
Continuous
 62
     0
370
    -2
100
AcDbLine
 10
349.6151819716327
 20
20.156964
 30
0.0
 11
332.1058756323846
 21
20.15696400000001
 31
0.0
  0
LINE
  5
15E3
330
148D
100
AcDbEntity
  8
0
  6
Continuous
 62
     0
370
    -2
100
AcDbLine
 10
349.6151819716327
 20
-41.84303599999998
 30
0.0
 11
332.1058756323846
 21
-41.84303599999997
 31
0.0
  0
LINE
  5
15E4
330
148D
100
AcDbEntity
  8
0
  6
Continuous
 62
     0
370
    -2
100
AcDbLine
 10
333.3558756323847
 20
17.656964
 30
0.0
 11
333.3558756323847
 21
-39.34303599999997
 31
0.0
  0
INSERT
  5
15E5
330
148D
100
AcDbEntity
  8
0
  6
Continuous
 62
     0
370
    -2
100
AcDbBlockReference
  2
_Open30
 10
333.3558756323847
 20
20.15696400000001
 30
0.0
 41
2.5
 42
2.5
 43
2.5
 50
90.0
  0
INSERT
  5
15E6
330
148D
100
AcDbEntity
  8
0
  6
Continuous
 62
     0
370
    -2
100
AcDbBlockReference
  2
_Open30
 10
333.3558756323847
 20
-41.84303599999997
 30
0.0
 41
2.5
 42
2.5
 43
2.5
 50
270.0
  0
MTEXT
  5
15E7
330
148D
100
AcDbEntity
  8
0
  6
Continuous
 62
     4
100
AcDbMText
 10
331.2308756323846
 20
-7.110383604117487
 30
0.0
 40
3.0
 41
0.0
 71
     5
 72
     1
  1
62
 11
0.0000000000000001
 21
1.0
 31
0.0
 73
     1
 44
1.0
1001
ACAD
1000
MTEXTBEGIN
1070
    73
1070
     1
1070
    44
1040
1.0
1070
    74
1070
     0
1000
MTEXTEND
  0
POINT
  5
15E8
330
148D
100
AcDbEntity
  8
Defpoints
  6
Continuous
 62
     0
100
AcDbPoint
 10
349.8651819716326
 20
20.156964
 30
0.0
  0
POINT
  5
15E9
330
148D
100
AcDbEntity
  8
Defpoints
  6
Continuous
 62
     0
100
AcDbPoint
 10
349.8651819716326
 20
-41.84303599999998
 30
0.0
  0
POINT
  5
15EA
330
148D
100
AcDbEntity
  8
Defpoints
  6
Continuous
 62
     0
100
AcDbPoint
 10
333.3558756323847
 20
-41.84303599999997
 30
0.0
  0
ENDBLK
  5
148F
330
148D
100
AcDbEntity
  8
0
100
AcDbBlockEnd
  0
BLOCK
  5
14A4
330
14A3
100
AcDbEntity
  8
0
100
AcDbBlockBegin
  2
*D9
 70
     1
 10
0.0
 20
0.0
 30
0.0
  3
*D9
  1

  0
LINE
  5
15EB
330
14A3
100
AcDbEntity
  8
0
  6
Continuous
 62
     0
370
    -2
100
AcDbLine
 10
359.6651833055878
 20
-34.90976592255234
 30
0.0
 11
359.6651833055878
 21
-52.17355921181046
 31
0.0
  0
LINE
  5
15EC
330
14A3
100
AcDbEntity
  8
0
  6
Continuous
 62
     0
370
    -2
100
AcDbLine
 10
385.6626150074747
 20
-33.51810545891039
 30
0.0
 11
385.6626150074747
 21
-52.17355921181046
 31
0.0
  0
LINE
  5
15ED
330
14A3
100
AcDbEntity
  8
0
  6
Continuous
 62
     0
370
    -2
100
AcDbLine
 10
362.1651833055878
 20
-50.92355921181046
 30
0.0
 11
383.1626150074747
 21
-50.92355921181046
 31
0.0
  0
INSERT
  5
15EE
330
14A3
100
AcDbEntity
  8
0
  6
Continuous
 62
     0
370
    -2
100
AcDbBlockReference
  2
_Open30
 10
359.6651833055878
 20
-50.92355921181046
 30
0.0
 41
2.5
 42
2.5
 43
2.5
 50
180.0
  0
INSERT
  5
15EF
330
14A3
100
AcDbEntity
  8
0
  6
Continuous
 62
     0
370
    -2
100
AcDbBlockReference
  2
_Open30
 10
385.6626150074747
 20
-50.92355921181046
 30
0.0
 41
2.5
 42
2.5
 43
2.5
  0
MTEXT
  5
15F0
330
14A3
100
AcDbEntity
  8
0
  6
Continuous
 62
     4
100
AcDbMText
 10
372.7442702211129
 20
-48.79855921181047
 30
0.0
 40
3.0
 41
0.0
 71
     5
 72
     1
  1
E26
 73
     1
 44
1.0
1001
ACAD
1000
MTEXTBEGIN
1070
    73
1070
     1
1070
    44
1040
1.0
1070
    74
1070
     0
1000
MTEXTEND
  0
POINT
  5
15F1
330
14A3
100
AcDbEntity
  8
Defpoints
  6
Continuous
 62
     0
100
AcDbPoint
 10
359.6651833055878
 20
-34.65976592255234
 30
0.0
  0
POINT
  5
15F2
330
14A3
100
AcDbEntity
  8
Defpoints
  6
Continuous
 62
     0
100
AcDbPoint
 10
385.6626150074747
 20
-33.26810545891039
 30
0.0
  0
POINT
  5
15F3
330
14A3
100
AcDbEntity
  8
Defpoints
  6
Continuous
 62
     0
100
AcDbPoint
 10
385.6626150074747
 20
-50.92355921181046
 30
0.0
  0
ENDBLK
  5
14A5
330
14A3
100
AcDbEntity
  8
0
100
AcDbBlockEnd
  0
BLOCK
  5
14D6
330
14D5
100
AcDbEntity
  8
0
100
AcDbBlockBegin
  2
*D10
 70
     1
 10
0.0
 20
0.0
 30
0.0
  3
*D10
  1

  0
LINE
  5
15F4
330
14D5
100
AcDbEntity
  8
0
  6
Continuous
 62
     0
370
    -2
100
AcDbLine
 10
343.1651819716326
 20
100.906964
 30
0.0
 11
343.1651819716326
 21
123.9801944942339
 31
0.0
  0
LINE
  5
15F5
330
14D5
100
AcDbEntity
  8
0
  6
Continuous
 62
     0
370
    -2
100
AcDbLine
 10
402.1651819716326
 20
100.906964
 30
0.0
 11
402.1651819716326
 21
123.9801944942339
 31
0.0
  0
LINE
  5
15F6
330
14D5
100
AcDbEntity
  8
0
  6
Continuous
 62
     0
370
    -2
100
AcDbLine
 10
345.6651819716326
 20
122.7301944942339
 30
0.0
 11
399.6651819716326
 21
122.7301944942339
 31
0.0
  0
INSERT
  5
15F7
330
14D5
100
AcDbEntity
  8
0
  6
Continuous
 62
     0
370
    -2
100
AcDbBlockReference
  2
_Open30
 10
343.1651819716326
 20
122.7301944942339
 30
0.0
 41
2.5
 42
2.5
 43
2.5
 50
180.0
  0
INSERT
  5
15F8
330
14D5
100
AcDbEntity
  8
0
  6
Continuous
 62
     0
370
    -2
100
AcDbBlockReference
  2
_Open30
 10
402.1651819716326
 20
122.7301944942339
 30
0.0
 41
2.5
 42
2.5
 43
2.5
  0
MTEXT
  5
15F9
330
14D5
100
AcDbEntity
  8
0
  6
Continuous
 62
     4
100
AcDbMText
 10
371.9337859792781
 20
124.8551944942339
 30
0.0
 40
3.0
 41
0.0
 71
     5
 72
     1
  1
%%C59
 73
     1
 44
1.0
1001
ACAD
1000
MTEXTBEGIN
1070
    73
1070
     1
1070
    44
1040
1.0
1070
    74
1070
     0
1000
MTEXTEND
  0
POINT
  5
15FA
330
14D5
100
AcDbEntity
  8
Defpoints
  6
Continuous
 62
     0
100
AcDbPoint
 10
343.1651819716326
 20
100.656964
 30
0.0
  0
POINT
  5
15FB
330
14D5
100
AcDbEntity
  8
Defpoints
  6
Continuous
 62
     0
100
AcDbPoint
 10
402.1651819716326
 20
100.656964
 30
0.0
  0
POINT
  5
15FC
330
14D5
100
AcDbEntity
  8
Defpoints
  6
Continuous
 62
     0
100
AcDbPoint
 10
402.1651819716326
 20
122.7301944942339
 30
0.0
  0
ENDBLK
  5
14D7
330
14D5
100
AcDbEntity
  8
0
100
AcDbBlockEnd
  0
BLOCK
  5
16F6
330
16F5
100
AcDbEntity
  8
0
100
AcDbBlockBegin
  2
*D11
 70
     1
 10
0.0
 20
0.0
 30
0.0
  3
*D11
  1

  0
LINE
  5
1BF8
330
16F5
100
AcDbEntity
  8
0
  6
Continuous
 62
     0
370
    -2
100
AcDbLine
 10
183.2450047418288
 20
20.156964
 30
0.0
 11
165.9356984025809
 21
20.15696400000001
 31
0.0
  0
LINE
  5
1BF9
330
16F5
100
AcDbEntity
  8
0
  6
Continuous
 62
     0
370
    -2
100
AcDbLine
 10
183.4450047418289
 20
-41.84303599999998
 30
0.0
 11
165.9356984025809
 21
-41.84303599999997
 31
0.0
  0
LINE
  5
1BFA
330
16F5
100
AcDbEntity
  8
0
  6
Continuous
 62
     0
370
    -2
100
AcDbLine
 10
167.1856984025809
 20
17.656964
 30
0.0
 11
167.1856984025809
 21
-39.34303599999997
 31
0.0
  0
INSERT
  5
1BFB
330
16F5
100
AcDbEntity
  8
0
  6
Continuous
 62
     0
370
    -2
100
AcDbBlockReference
  2
_Open30
 10
167.1856984025809
 20
20.15696400000001
 30
0.0
 41
2.5
 42
2.5
 43
2.5
 50
90.0
  0
INSERT
  5
1BFC
330
16F5
100
AcDbEntity
  8
0
  6
Continuous
 62
     0
370
    -2
100
AcDbBlockReference
  2
_Open30
 10
167.1856984025809
 20
-41.84303599999997
 30
0.0
 41
2.5
 42
2.5
 43
2.5
 50
270.0
  0
MTEXT
  5
1BFD
330
16F5
100
AcDbEntity
  8
0
  6
Continuous
 62
     4
100
AcDbMText
 10
165.0606984025809
 20
-7.110383604117486
 30
0.0
 40
3.0
 41
0.0
 71
     5
 72
     1
  1
62
 11
0.0000000000000001
 21
1.0
 31
0.0
 73
     1
 44
1.0
1001
ACAD
1000
MTEXTBEGIN
1070
    73
1070
     1
1070
    44
1040
1.0
1070
    74
1070
     0
1000
MTEXTEND
  0
POINT
  5
1BFE
330
16F5
100
AcDbEntity
  8
Defpoints
  6
Continuous
 62
     0
100
AcDbPoint
 10
183.4950047418288
 20
20.156964
 30
0.0
  0
POINT
  5
1BFF
330
16F5
100
AcDbEntity
  8
Defpoints
  6
Continuous
 62
     0
100
AcDbPoint
 10
183.6950047418289
 20
-41.84303599999998
 30
0.0
  0
POINT
  5
1C00
330
16F5
100
AcDbEntity
  8
Defpoints
  6
Continuous
 62
     0
100
AcDbPoint
 10
167.1856984025809
 20
-41.84303599999997
 30
0.0
  0
ENDBLK
  5
16F7
330
16F5
100
AcDbEntity
  8
0
100
AcDbBlockEnd
  0
BLOCK
  5
1702
330
1701
100
AcDbEntity
  8
0
100
AcDbBlockBegin
  2
*D12
 70
     1
 10
0.0
 20
0.0
 30
0.0
  3
*D12
  1

  0
LINE
  5
1C01
330
1701
100
AcDbEntity
  8
0
  6
Continuous
 62
     0
370
    -2
100
AcDbLine
 10
193.495006075784
 20
-34.90976592255234
 30
0.0
 11
193.495006075784
 21
-52.17355921181046
 31
0.0
  0
LINE
  5
1C02
330
1701
100
AcDbEntity
  8
0
  6
Continuous
 62
     0
370
    -2
100
AcDbLine
 10
219.4924377776709
 20
-33.51810545891039
 30
0.0
 11
219.4924377776709
 21
-52.17355921181046
 31
0.0
  0
LINE
  5
1C03
330
1701
100
AcDbEntity
  8
0
  6
Continuous
 62
     0
370
    -2
100
AcDbLine
 10
195.995006075784
 20
-50.92355921181046
 30
0.0
 11
216.9924377776709
 21
-50.92355921181046
 31
0.0
  0
INSERT
  5
1C04
330
1701
100
AcDbEntity
  8
0
  6
Continuous
 62
     0
370
    -2
100
AcDbBlockReference
  2
_Open30
 10
193.495006075784
 20
-50.92355921181046
 30
0.0
 41
2.5
 42
2.5
 43
2.5
 50
180.0
  0
INSERT
  5
1C05
330
1701
100
AcDbEntity
  8
0
  6
Continuous
 62
     0
370
    -2
100
AcDbBlockReference
  2
_Open30
 10
219.4924377776709
 20
-50.92355921181046
 30
0.0
 41
2.5
 42
2.5
 43
2.5
  0
MTEXT
  5
1C06
330
1701
100
AcDbEntity
  8
0
  6
Continuous
 62
     4
100
AcDbMText
 10
206.5740929913091
 20
-48.79855921181047
 30
0.0
 40
3.0
 41
0.0
 71
     5
 72
     1
  1
E26
 73
     1
 44
1.0
1001
ACAD
1000
MTEXTBEGIN
1070
    73
1070
     1
1070
    44
1040
1.0
1070
    74
1070
     0
1000
MTEXTEND
  0
POINT
  5
1C07
330
1701
100
AcDbEntity
  8
Defpoints
  6
Continuous
 62
     0
100
AcDbPoint
 10
193.495006075784
 20
-34.65976592255234
 30
0.0
  0
POINT
  5
1C08
330
1701
100
AcDbEntity
  8
Defpoints
  6
Continuous
 62
     0
100
AcDbPoint
 10
219.4924377776709
 20
-33.26810545891039
 30
0.0
  0
POINT
  5
1C09
330
1701
100
AcDbEntity
  8
Defpoints
  6
Continuous
 62
     0
100
AcDbPoint
 10
219.4924377776709
 20
-50.92355921181046
 30
0.0
  0
ENDBLK
  5
1703
330
1701
100
AcDbEntity
  8
0
100
AcDbBlockEnd
  0
BLOCK
  5
170E
330
170D
100
AcDbEntity
  8
0
100
AcDbBlockBegin
  2
*D13
 70
     1
 10
0.0
 20
0.0
 30
0.0
  3
*D13
  1

  0
LINE
  5
1C0A
330
170D
100
AcDbEntity
  8
0
  6
Continuous
 62
     0
370
    -2
100
AcDbLine
 10
176.9950047418288
 20
100.906964
 30
0.0
 11
176.9950047418288
 21
123.9801944942339
 31
0.0
  0
LINE
  5
1C0B
330
170D
100
AcDbEntity
  8
0
  6
Continuous
 62
     0
370
    -2
100
AcDbLine
 10
235.995004741829
 20
100.906964
 30
0.0
 11
235.995004741829
 21
123.9801944942339
 31
0.0
  0
LINE
  5
1C0C
330
170D
100
AcDbEntity
  8
0
  6
Continuous
 62
     0
370
    -2
100
AcDbLine
 10
179.4950047418288
 20
122.7301944942339
 30
0.0
 11
233.4950047418289
 21
122.7301944942339
 31
0.0
  0
INSERT
  5
1C0D
330
170D
100
AcDbEntity
  8
0
  6
Continuous
 62
     0
370
    -2
100
AcDbBlockReference
  2
_Open30
 10
176.9950047418288
 20
122.7301944942339
 30
0.0
 41
2.5
 42
2.5
 43
2.5
 50
180.0
  0
INSERT
  5
1C0E
330
170D
100
AcDbEntity
  8
0
  6
Continuous
 62
     0
370
    -2
100
AcDbBlockReference
  2
_Open30
 10
235.995004741829
 20
122.7301944942339
 30
0.0
 41
2.5
 42
2.5
 43
2.5
  0
MTEXT
  5
1C0F
330
170D
100
AcDbEntity
  8
0
  6
Continuous
 62
     4
100
AcDbMText
 10
205.7636087494744
 20
124.8551944942339
 30
0.0
 40
3.0
 41
0.0
 71
     5
 72
     1
  1
%%C59
 73
     1
 44
1.0
1001
ACAD
1000
MTEXTBEGIN
1070
    73
1070
     1
1070
    44
1040
1.0
1070
    74
1070
     0
1000
MTEXTEND
  0
POINT
  5
1C10
330
170D
100
AcDbEntity
  8
Defpoints
  6
Continuous
 62
     0
100
AcDbPoint
 10
176.9950047418288
 20
100.656964
 30
0.0
  0
POINT
  5
1C11
330
170D
100
AcDbEntity
  8
Defpoints
  6
Continuous
 62
     0
100
AcDbPoint
 10
235.995004741829
 20
100.656964
 30
0.0
  0
POINT
  5
1C12
330
170D
100
AcDbEntity
  8
Defpoints
  6
Continuous
 62
     0
100
AcDbPoint
 10
235.995004741829
 20
122.7301944942339
 30
0.0
  0
ENDBLK
  5
170F
330
170D
100
AcDbEntity
  8
0
100
AcDbBlockEnd
  0
BLOCK
  5
171A
330
1719
100
AcDbEntity
  8
0
100
AcDbBlockBegin
  2
*D14
 70
     1
 10
0.0
 20
0.0
 30
0.0
  3
*D14
  1

  0
LINE
  5
1BE6
330
1719
100
AcDbEntity
  8
0
  6
Continuous
 62
     0
370
    -2
100
AcDbLine
 10
206.2450047418288
 20
-41.84303599999998
 30
0.0
 11
156.8413290340509
 21
-41.84303599999997
 31
0.0
  0
LINE
  5
1BE7
330
1719
100
AcDbEntity
  8
0
  6
Continuous
 62
     0
370
    -2
100
AcDbLine
 10
206.2450047418288
 20
111.156964
 30
0.0
 11
156.8413290340509
 21
111.156964
 31
0.0
  0
LINE
  5
1BE8
330
1719
100
AcDbEntity
  8
0
  6
Continuous
 62
     0
370
    -2
100
AcDbLine
 10
158.0913290340509
 20
-39.34303599999997
 30
0.0
 11
158.0913290340509
 21
108.656964
 31
0.0
  0
INSERT
  5
1BE9
330
1719
100
AcDbEntity
  8
0
  6
Continuous
 62
     0
370
    -2
100
AcDbBlockReference
  2
_Open30
 10
158.0913290340509
 20
-41.84303599999997
 30
0.0
 41
2.5
 42
2.5
 43
2.5
 50
270.0
  0
INSERT
  5
1BEA
330
1719
100
AcDbEntity
  8
0
  6
Continuous
 62
     0
370
    -2
100
AcDbBlockReference
  2
_Open30
 10
158.0913290340509
 20
111.156964
 30
0.0
 41
2.5
 42
2.5
 43
2.5
 50
90.0
  0
MTEXT
  5
1BEB
330
1719
100
AcDbEntity
  8
0
  6
Continuous
 62
     4
100
AcDbMText
 10
155.9663290340509
 20
35.48291211720198
 30
0.0
 40
3.0
 41
0.0
 71
     5
 72
     1
  1
153
 11
0.0000000000000001
 21
1.0
 31
0.0
 73
     1
 44
1.0
1001
ACAD
1000
MTEXTBEGIN
1070
    73
1070
     1
1070
    44
1040
1.0
1070
    74
1070
     0
1000
MTEXTEND
  0
POINT
  5
1BEC
330
1719
100
AcDbEntity
  8
Defpoints
  6
Continuous
 62
     0
100
AcDbPoint
 10
206.4950047418288
 20
-41.84303599999998
 30
0.0
  0
POINT
  5
1BED
330
1719
100
AcDbEntity
  8
Defpoints
  6
Continuous
 62
     0
100
AcDbPoint
 10
206.4950047418288
 20
111.156964
 30
0.0
  0
POINT
  5
1BEE
330
1719
100
AcDbEntity
  8
Defpoints
  6
Continuous
 62
     0
100
AcDbPoint
 10
158.0913290340509
 20
111.156964
 30
0.0
  0
ENDBLK
  5
171B
330
1719
100
AcDbEntity
  8
0
100
AcDbBlockEnd
  0
BLOCK
  5
1726
330
1725
100
AcDbEntity
  8
0
100
AcDbBlockBegin
  2
*D15
 70
     1
 10
0.0
 20
0.0
 30
0.0
  3
*D15
  1

  0
LINE
  5
1BEF
330
1725
100
AcDbEntity
  8
0
  6
Continuous
 62
     0
370
    -2
100
AcDbLine
 10
190.7450047418288
 20
-15.343036
 30
0.0
 11
174.0106556402562
 21
-15.34303599999999
 31
0.0
  0
LINE
  5
1BF0
330
1725
100
AcDbEntity
  8
0
  6
Continuous
 62
     0
370
    -2
100
AcDbLine
 10
183.2450047418288
 20
20.156964
 30
0.0
 11
174.0106556402562
 21
20.156964
 31
0.0
  0
LINE
  5
1BF1
330
1725
100
AcDbEntity
  8
0
  6
Continuous
 62
     0
370
    -2
100
AcDbLine
 10
175.2606556402562
 20
-12.84303599999999
 30
0.0
 11
175.2606556402562
 21
17.656964
 31
0.0
  0
INSERT
  5
1BF2
330
1725
100
AcDbEntity
  8
0
  6
Continuous
 62
     0
370
    -2
100
AcDbBlockReference
  2
_Open30
 10
175.2606556402562
 20
-15.34303599999999
 30
0.0
 41
2.5
 42
2.5
 43
2.5
 50
270.0
  0
INSERT
  5
1BF3
330
1725
100
AcDbEntity
  8
0
  6
Continuous
 62
     0
370
    -2
100
AcDbBlockReference
  2
_Open30
 10
175.2606556402562
 20
20.156964
 30
0.0
 41
2.5
 42
2.5
 43
2.5
 50
90.0
  0
MTEXT
  5
1BF4
330
1725
100
AcDbEntity
  8
0
  6
Continuous
 62
     4
100
AcDbMText
 10
173.1356556402562
 20
1.796063995718211
 30
0.0
 40
3.0
 41
0.0
 71
     5
 72
     1
  1
35.5
 11
0.0000000000000001
 21
1.0
 31
0.0
 73
     1
 44
1.0
1001
ACAD
1000
MTEXTBEGIN
1070
    73
1070
     1
1070
    44
1040
1.0
1070
    74
1070
     0
1000
MTEXTEND
  0
POINT
  5
1BF5
330
1725
100
AcDbEntity
  8
Defpoints
  6
Continuous
 62
     0
100
AcDbPoint
 10
190.9950047418288
 20
-15.343036
 30
0.0
  0
POINT
  5
1BF6
330
1725
100
AcDbEntity
  8
Defpoints
  6
Continuous
 62
     0
100
AcDbPoint
 10
183.4950047418288
 20
20.156964
 30
0.0
  0
POINT
  5
1BF7
330
1725
100
AcDbEntity
  8
Defpoints
  6
Continuous
 62
     0
100
AcDbPoint
 10
175.2606556402562
 20
20.156964
 30
0.0
  0
ENDBLK
  5
1727
330
1725
100
AcDbEntity
  8
0
100
AcDbBlockEnd
  0
BLOCK
  5
1781
330
1780
100
AcDbEntity
  8
0
100
AcDbBlockBegin
  2
*D16
 70
     1
 10
0.0
 20
0.0
 30
0.0
  3
*D16
  1

  0
LINE
  5
1C13
330
1780
100
AcDbEntity
  8
0
  6
Continuous
 62
     0
370
    -2
100
AcDbLine
 10
230.4950047418288
 20
13.906964
 30
0.0
 11
230.4950047418288
 21
-56.81657366580862
 31
0.0
  0
LINE
  5
1C14
330
1780
100
AcDbEntity
  8
0
  6
Continuous
 62
     0
370
    -2
100
AcDbLine
 10
182.4950047418288
 20
13.906964
 30
0.0
 11
182.4950047418288
 21
-56.81657366580862
 31
0.0
  0
LINE
  5
1C15
330
1780
100
AcDbEntity
  8
0
  6
Continuous
 62
     0
370
    -2
100
AcDbLine
 10
227.9950047418288
 20
-55.56657366580862
 30
0.0
 11
184.9950047418287
 21
-55.56657366580862
 31
0.0
  0
INSERT
  5
1C16
330
1780
100
AcDbEntity
  8
0
  6
Continuous
 62
     0
370
    -2
100
AcDbBlockReference
  2
_Open30
 10
230.4950047418288
 20
-55.56657366580862
 30
0.0
 41
2.5
 42
2.5
 43
2.5
  0
INSERT
  5
1C17
330
1780
100
AcDbEntity
  8
0
  6
Continuous
 62
     0
370
    -2
100
AcDbBlockReference
  2
_Open30
 10
182.4950047418288
 20
-55.56657366580862
 30
0.0
 41
2.5
 42
2.5
 43
2.5
 50
180.0
  0
MTEXT
  5
1C18
330
1780
100
AcDbEntity
  8
0
  6
Continuous
 62
     4
100
AcDbMText
 10
204.7177253279815
 20
-53.44157366580862
 30
0.0
 40
3.0
 41
0.0
 71
     5
 72
     1
  1
%%C48
 73
     1
 44
1.0
1001
ACAD
1000
MTEXTBEGIN
1070
    73
1070
     1
1070
    44
1040
1.0
1070
    74
1070
     0
1000
MTEXTEND
  0
POINT
  5
1C19
330
1780
100
AcDbEntity
  8
Defpoints
  6
Continuous
 62
     0
100
AcDbPoint
 10
230.4950047418288
 20
14.156964
 30
0.0
  0
POINT
  5
1C1A
330
1780
100
AcDbEntity
  8
Defpoints
  6
Continuous
 62
     0
100
AcDbPoint
 10
182.4950047418288
 20
14.156964
 30
0.0
  0
POINT
  5
1C1B
330
1780
100
AcDbEntity
  8
Defpoints
  6
Continuous
 62
     0
100
AcDbPoint
 10
182.4950047418288
 20
-55.56657366580862
 30
0.0
  0
ENDBLK
  5
1782
330
1780
100
AcDbEntity
  8
0
100
AcDbBlockEnd
  0
BLOCK
  5
1A06
330
1A05
100
AcDbEntity
  8
0
100
AcDbBlockBegin
  2
*D17
 70
     1
 10
0.0
 20
0.0
 30
0.0
  3
*D17
  1

  0
LINE
  5
1EAC
330
1A05
100
AcDbEntity
  8
0
  6
Continuous
 62
     0
370
    -2
100
AcDbLine
 10
365.9558827729429
 20
-41.84303599999998
 30
0.0
 11
316.552207065165
 21
-41.84303599999997
 31
0.0
  0
LINE
  5
1EAD
330
1A05
100
AcDbEntity
  8
0
  6
Continuous
 62
     0
370
    -2
100
AcDbLine
 10
365.9558827729428
 20
137.156964
 30
0.0
 11
316.552207065165
 21
137.156964
 31
0.0
  0
LINE
  5
1EAE
330
1A05
100
AcDbEntity
  8
0
  6
Continuous
 62
     0
370
    -2
100
AcDbLine
 10
317.802207065165
 20
-39.34303599999997
 30
0.0
 11
317.802207065165
 21
134.656964
 31
0.0
  0
INSERT
  5
1EAF
330
1A05
100
AcDbEntity
  8
0
  6
Continuous
 62
     0
370
    -2
100
AcDbBlockReference
  2
_Open30
 10
317.802207065165
 20
-41.84303599999997
 30
0.0
 41
2.5
 42
2.5
 43
2.5
 50
270.0
  0
INSERT
  5
1EB0
330
1A05
100
AcDbEntity
  8
0
  6
Continuous
 62
     0
370
    -2
100
AcDbBlockReference
  2
_Open30
 10
317.802207065165
 20
137.156964
 30
0.0
 41
2.5
 42
2.5
 43
2.5
 50
90.0
  0
MTEXT
  5
1EB1
330
1A05
100
AcDbEntity
  8
0
  6
Continuous
 62
     4
100
AcDbMText
 10
315.6772070651649
 20
35.48291211720198
 30
0.0
 40
3.0
 41
0.0
 71
     5
 72
     1
  1
179
 11
0.0000000000000001
 21
1.0
 31
0.0
 73
     1
 44
1.0
1001
ACAD
1000
MTEXTBEGIN
1070
    73
1070
     1
1070
    44
1040
1.0
1070
    74
1070
     0
1000
MTEXTEND
  0
POINT
  5
1EB2
330
1A05
100
AcDbEntity
  8
Defpoints
  6
Continuous
 62
     0
100
AcDbPoint
 10
366.2058827729429
 20
-41.84303599999998
 30
0.0
  0
POINT
  5
1EB3
330
1A05
100
AcDbEntity
  8
Defpoints
  6
Continuous
 62
     0
100
AcDbPoint
 10
366.2058827729428
 20
137.156964
 30
0.0
  0
POINT
  5
1EB4
330
1A05
100
AcDbEntity
  8
Defpoints
  6
Continuous
 62
     0
100
AcDbPoint
 10
317.802207065165
 20
137.156964
 30
0.0
  0
ENDBLK
  5
1A07
330
1A05
100
AcDbEntity
  8
0
100
AcDbBlockEnd
  0
BLOCK
  5
1A12
330
1A11
100
AcDbEntity
  8
0
100
AcDbBlockBegin
  2
*D18
 70
     1
 10
0.0
 20
0.0
 30
0.0
  3
*D18
  1

  0
LINE
  5
1EB5
330
1A11
100
AcDbEntity
  8
0
 62
     0
370
    -2
100
AcDbLine
 10
352.0558827729429
 20
-16.343036
 30
0.0
 11
331.9571514712345
 21
-16.34303599999999
 31
0.0
  0
LINE
  5
1EB6
330
1A11
100
AcDbEntity
  8
0
 62
     0
370
    -2
100
AcDbLine
 10
341.155882772943
 20
33.656964
 30
0.0
 11
331.9571514712345
 21
33.65696400000001
 31
0.0
  0
LINE
  5
1EB7
330
1A11
100
AcDbEntity
  8
0
 62
     0
370
    -2
100
AcDbLine
 10
333.2071514712345
 20
-13.84303599999999
 30
0.0
 11
333.2071514712345
 21
31.15696400000001
 31
0.0
  0
INSERT
  5
1EB8
330
1A11
100
AcDbEntity
  8
0
 62
     0
370
    -2
100
AcDbBlockReference
  2
_Open30
 10
333.2071514712345
 20
-16.34303599999999
 30
0.0
 41
2.5
 42
2.5
 43
2.5
 50
270.0
  0
INSERT
  5
1EB9
330
1A11
100
AcDbEntity
  8
0
 62
     0
370
    -2
100
AcDbBlockReference
  2
_Open30
 10
333.2071514712345
 20
33.65696400000001
 30
0.0
 41
2.5
 42
2.5
 43
2.5
 50
90.0
  0
MTEXT
  5
1EBA
330
1A11
100
AcDbEntity
  8
0
 62
     4
100
AcDbMText
 10
331.0821514712345
 20
8.656964000000005
 30
0.0
 40
3.0
 41
0.0
 71
     5
 72
     1
  1
50
 11
0.0000000000000001
 21
1.0
 31
0.0
 73
     1
 44
1.0
1001
ACAD
1000
MTEXTBEGIN
1070
    73
1070
     1
1070
    44
1040
1.0
1070
    74
1070
     0
1000
MTEXTEND
  0
POINT
  5
1EBB
330
1A11
100
AcDbEntity
  8
Defpoints
 62
     0
100
AcDbPoint
 10
352.3058827729429
 20
-16.343036
 30
0.0
  0
POINT
  5
1EBC
330
1A11
100
AcDbEntity
  8
Defpoints
 62
     0
100
AcDbPoint
 10
341.405882772943
 20
33.656964
 30
0.0
  0
POINT
  5
1EBD
330
1A11
100
AcDbEntity
  8
Defpoints
 62
     0
100
AcDbPoint
 10
333.2071514712345
 20
33.65696400000001
 30
0.0
  0
ENDBLK
  5
1A13
330
1A11
100
AcDbEntity
  8
0
100
AcDbBlockEnd
  0
BLOCK
  5
1A1E
330
1A1D
100
AcDbEntity
  8
0
100
AcDbBlockBegin
  2
*D19
 70
     1
 10
0.0
 20
0.0
 30
0.0
  3
*D19
  1

  0
LINE
  5
1EBE
330
1A1D
100
AcDbEntity
  8
0
  6
Continuous
 62
     0
370
    -2
100
AcDbLine
 10
341.155882772943
 20
33.656964
 30
0.0
 11
324.2464523766482
 21
33.65696400000001
 31
0.0
  0
LINE
  5
1EBF
330
1A1D
100
AcDbEntity
  8
0
  6
Continuous
 62
     0
370
    -2
100
AcDbLine
 10
343.155882772943
 20
-41.84303599999998
 30
0.0
 11
324.2464523766482
 21
-41.84303599999997
 31
0.0
  0
LINE
  5
1EC0
330
1A1D
100
AcDbEntity
  8
0
  6
Continuous
 62
     0
370
    -2
100
AcDbLine
 10
325.4964523766482
 20
31.15696400000001
 30
0.0
 11
325.4964523766482
 21
-39.34303599999997
 31
0.0
  0
INSERT
  5
1EC1
330
1A1D
100
AcDbEntity
  8
0
  6
Continuous
 62
     0
370
    -2
100
AcDbBlockReference
  2
_Open30
 10
325.4964523766482
 20
33.65696400000001
 30
0.0
 41
2.5
 42
2.5
 43
2.5
 50
90.0
  0
INSERT
  5
1EC2
330
1A1D
100
AcDbEntity
  8
0
  6
Continuous
 62
     0
370
    -2
100
AcDbBlockReference
  2
_Open30
 10
325.4964523766482
 20
-41.84303599999997
 30
0.0
 41
2.5
 42
2.5
 43
2.5
 50
270.0
  0
MTEXT
  5
1EC3
330
1A1D
100
AcDbEntity
  8
0
  6
Continuous
 62
     4
100
AcDbMText
 10
323.3714523766482
 20
-7.110383604117487
 30
0.0
 40
3.0
 41
0.0
 71
     5
 72
     1
  1
75.5
 11
0.0000000000000001
 21
1.0
 31
0.0
 73
     1
 44
1.0
1001
ACAD
1000
MTEXTBEGIN
1070
    73
1070
     1
1070
    44
1040
1.0
1070
    74
1070
     0
1000
MTEXTEND
  0
POINT
  5
1EC4
330
1A1D
100
AcDbEntity
  8
Defpoints
  6
Continuous
 62
     0
100
AcDbPoint
 10
341.405882772943
 20
33.656964
 30
0.0
  0
POINT
  5
1EC5
330
1A1D
100
AcDbEntity
  8
Defpoints
  6
Continuous
 62
     0
100
AcDbPoint
 10
343.405882772943
 20
-41.84303599999998
 30
0.0
  0
POINT
  5
1EC6
330
1A1D
100
AcDbEntity
  8
Defpoints
  6
Continuous
 62
     0
100
AcDbPoint
 10
325.4964523766482
 20
-41.84303599999997
 30
0.0
  0
ENDBLK
  5
1A1F
330
1A1D
100
AcDbEntity
  8
0
100
AcDbBlockEnd
  0
BLOCK
  5
1A2A
330
1A29
100
AcDbEntity
  8
0
100
AcDbBlockBegin
  2
*D20
 70
     1
 10
0.0
 20
0.0
 30
0.0
  3
*D20
  1

  0
LINE
  5
1EC7
330
1A29
100
AcDbEntity
  8
0
  6
Continuous
 62
     0
370
    -2
100
AcDbLine
 10
353.2058841068981
 20
-34.90976592255234
 30
0.0
 11
353.2058841068981
 21
-52.17355921181046
 31
0.0
  0
LINE
  5
1EC8
330
1A29
100
AcDbEntity
  8
0
  6
Continuous
 62
     0
370
    -2
100
AcDbLine
 10
379.203315808785
 20
-33.51810545891039
 30
0.0
 11
379.203315808785
 21
-52.17355921181046
 31
0.0
  0
LINE
  5
1EC9
330
1A29
100
AcDbEntity
  8
0
  6
Continuous
 62
     0
370
    -2
100
AcDbLine
 10
355.7058841068981
 20
-50.92355921181046
 30
0.0
 11
376.703315808785
 21
-50.92355921181046
 31
0.0
  0
INSERT
  5
1ECA
330
1A29
100
AcDbEntity
  8
0
  6
Continuous
 62
     0
370
    -2
100
AcDbBlockReference
  2
_Open30
 10
353.2058841068981
 20
-50.92355921181046
 30
0.0
 41
2.5
 42
2.5
 43
2.5
 50
180.0
  0
INSERT
  5
1ECB
330
1A29
100
AcDbEntity
  8
0
  6
Continuous
 62
     0
370
    -2
100
AcDbBlockReference
  2
_Open30
 10
379.203315808785
 20
-50.92355921181046
 30
0.0
 41
2.5
 42
2.5
 43
2.5
  0
MTEXT
  5
1ECC
330
1A29
100
AcDbEntity
  8
0
  6
Continuous
 62
     4
100
AcDbMText
 10
366.2849710224232
 20
-48.79855921181047
 30
0.0
 40
3.0
 41
0.0
 71
     5
 72
     1
  1
E26
 73
     1
 44
1.0
1001
ACAD
1000
MTEXTBEGIN
1070
    73
1070
     1
1070
    44
1040
1.0
1070
    74
1070
     0
1000
MTEXTEND
  0
POINT
  5
1ECD
330
1A29
100
AcDbEntity
  8
Defpoints
  6
Continuous
 62
     0
100
AcDbPoint
 10
353.2058841068981
 20
-34.65976592255234
 30
0.0
  0
POINT
  5
1ECE
330
1A29
100
AcDbEntity
  8
Defpoints
  6
Continuous
 62
     0
100
AcDbPoint
 10
379.203315808785
 20
-33.26810545891039
 30
0.0
  0
POINT
  5
1ECF
330
1A29
100
AcDbEntity
  8
Defpoints
  6
Continuous
 62
     0
100
AcDbPoint
 10
379.203315808785
 20
-50.92355921181046
 30
0.0
  0
ENDBLK
  5
1A2B
330
1A29
100
AcDbEntity
  8
0
100
AcDbBlockEnd
  0
BLOCK
  5
1A36
330
1A35
100
AcDbEntity
  8
0
100
AcDbBlockBegin
  2
*D21
 70
     1
 10
0.0
 20
0.0
 30
0.0
  3
*D21
  1

  0
LINE
  5
1ED0
330
1A35
100
AcDbEntity
  8
0
  6
Continuous
 62
     0
370
    -2
100
AcDbLine
 10
331.9558827729429
 20
112.6004828754167
 30
0.0
 11
331.9558827729429
 21
149.6561747257453
 31
0.0
  0
LINE
  5
1ED1
330
1A35
100
AcDbEntity
  8
0
  6
Continuous
 62
     0
370
    -2
100
AcDbLine
 10
400.4558827729429
 20
112.6004828754167
 30
0.0
 11
400.4558827729429
 21
149.6561747257453
 31
0.0
  0
LINE
  5
1ED2
330
1A35
100
AcDbEntity
  8
0
  6
Continuous
 62
     0
370
    -2
100
AcDbLine
 10
334.4558827729429
 20
148.4061747257453
 30
0.0
 11
397.9558827729429
 21
148.4061747257453
 31
0.0
  0
INSERT
  5
1ED3
330
1A35
100
AcDbEntity
  8
0
  6
Continuous
 62
     0
370
    -2
100
AcDbBlockReference
  2
_Open30
 10
331.9558827729429
 20
148.4061747257453
 30
0.0
 41
2.5
 42
2.5
 43
2.5
 50
180.0
  0
INSERT
  5
1ED4
330
1A35
100
AcDbEntity
  8
0
  6
Continuous
 62
     0
370
    -2
100
AcDbBlockReference
  2
_Open30
 10
400.4558827729429
 20
148.4061747257453
 30
0.0
 41
2.5
 42
2.5
 43
2.5
  0
MTEXT
  5
1ED5
330
1A35
100
AcDbEntity
  8
0
  6
Continuous
 62
     4
100
AcDbMText
 10
366.2058827729429
 20
150.5311747257453
 30
0.0
 40
3.0
 41
0.0
 71
     5
 72
     1
  1
%%C68.5
 73
     1
 44
1.0
1001
ACAD
1000
MTEXTBEGIN
1070
    73
1070
     1
1070
    44
1040
1.0
1070
    74
1070
     0
1000
MTEXTEND
  0
POINT
  5
1ED6
330
1A35
100
AcDbEntity
  8
Defpoints
  6
Continuous
 62
     0
100
AcDbPoint
 10
331.9558827729429
 20
112.3504828754167
 30
0.0
  0
POINT
  5
1ED7
330
1A35
100
AcDbEntity
  8
Defpoints
  6
Continuous
 62
     0
100
AcDbPoint
 10
400.4558827729429
 20
112.3504828754167
 30
0.0
  0
POINT
  5
1ED8
330
1A35
100
AcDbEntity
  8
Defpoints
  6
Continuous
 62
     0
100
AcDbPoint
 10
400.4558827729429
 20
148.4061747257453
 30
0.0
  0
ENDBLK
  5
1A37
330
1A35
100
AcDbEntity
  8
0
100
AcDbBlockEnd
  0
BLOCK
  5
1A42
330
1A41
100
AcDbEntity
  8
0
100
AcDbBlockBegin
  2
*D22
 70
     1
 10
0.0
 20
0.0
 30
0.0
  3
*D22
  1

  0
LINE
  5
1ED9
330
1A41
100
AcDbEntity
  8
0
  6
Continuous
 62
     0
370
    -2
100
AcDbLine
 10
395.2058827729429
 20
24.906964
 30
0.0
 11
395.2058827729429
 21
-58.6074642847052
 31
0.0
  0
LINE
  5
1EDA
330
1A41
100
AcDbEntity
  8
0
  6
Continuous
 62
     0
370
    -2
100
AcDbLine
 10
337.2058827729429
 20
24.906964
 30
0.0
 11
337.2058827729429
 21
-58.6074642847052
 31
0.0
  0
LINE
  5
1EDB
330
1A41
100
AcDbEntity
  8
0
  6
Continuous
 62
     0
370
    -2
100
AcDbLine
 10
392.7058827729429
 20
-57.3574642847052
 30
0.0
 11
339.7058827729429
 21
-57.3574642847052
 31
0.0
  0
INSERT
  5
1EDC
330
1A41
100
AcDbEntity
  8
0
  6
Continuous
 62
     0
370
    -2
100
AcDbBlockReference
  2
_Open30
 10
395.2058827729429
 20
-57.3574642847052
 30
0.0
 41
2.5
 42
2.5
 43
2.5
  0
INSERT
  5
1EDD
330
1A41
100
AcDbEntity
  8
0
  6
Continuous
 62
     0
370
    -2
100
AcDbBlockReference
  2
_Open30
 10
337.2058827729429
 20
-57.3574642847052
 30
0.0
 41
2.5
 42
2.5
 43
2.5
 50
180.0
  0
MTEXT
  5
1EDE
330
1A41
100
AcDbEntity
  8
0
  6
Continuous
 62
     4
100
AcDbMText
 10
366.2058827729429
 20
-55.2324642847052
 30
0.0
 40
3.0
 41
0.0
 71
     5
 72
     1
  1
%%C58
 73
     1
 44
1.0
1001
ACAD
1000
MTEXTBEGIN
1070
    73
1070
     1
1070
    44
1040
1.0
1070
    74
1070
     0
1000
MTEXTEND
  0
POINT
  5
1EDF
330
1A41
100
AcDbEntity
  8
Defpoints
  6
Continuous
 62
     0
100
AcDbPoint
 10
395.2058827729429
 20
25.156964
 30
0.0
  0
POINT
  5
1EE0
330
1A41
100
AcDbEntity
  8
Defpoints
  6
Continuous
 62
     0
100
AcDbPoint
 10
337.2058827729429
 20
25.156964
 30
0.0
  0
POINT
  5
1EE1
330
1A41
100
AcDbEntity
  8
Defpoints
  6
Continuous
 62
     0
100
AcDbPoint
 10
337.2058827729429
 20
-57.3574642847052
 30
0.0
  0
ENDBLK
  5
1A43
330
1A41
100
AcDbEntity
  8
0
100
AcDbBlockEnd
  0
ENDSEC
  0
SECTION
  2
ENTITIES
  0
LINE
  5
DD
330
6B
100
AcDbEntity
  8
0
 62
     3
100
AcDbLine
 10
404.224642
 20
165.1498509999999
 30
0.0
 11
487.8246419999999
 21
165.1498509999999
 31
0.0
  0
TEXT
  5
DE
330
6B
100
AcDbEntity
  8
0
 62
     3
100
AcDbText
 10
477.099642
 20
161.0048509999999
 30
0.0
 40
3.2
  1
担
  7
高3.2
100
AcDbText
  0
TEXT
  5
DF
330
6B
100
AcDbEntity
  8
0
 62
     3
100
AcDbText
 10
483.987142
 20
161.0048509999999
 30
0.0
 40
3.2
  1
当
  7
高3.2
100
AcDbText
  0
TEXT
  5
E0
330
6B
100
AcDbEntity
  8
0
 62
     3
100
AcDbText
 10
436.903866
 20
160.987689
 30
0.0
 40
3.2
  1
変更・追記内容
  7
高3.2
100
AcDbText
  0
LINE
  5
E1
330
6B
100
AcDbEntity
  8
0
 62
     3
100
AcDbLine
 10
404.224642
 20
169.65524
 30
0.0
 11
404.224642
 21
130.4998509999999
 31
0.0
  0
TEXT
  5
E2
330
6B
100
AcDbEntity
  8
0
 62
     3
100
AcDbText
 10
408.6830069009954
 20
156.3163546495817
 30
0.0
 40
2.0
  1
1
  7
高2
100
AcDbText
  0
TEXT
  5
E3
330
6B
100
AcDbEntity
  8
0
 62
     3
100
AcDbText
 10
408.3868779892982
 20
151.1354188989684
 30
0.0
 40
2.0
  1
2
  7
高2
100
AcDbText
  0
TEXT
  5
E4
330
6B
100
AcDbEntity
  8
0
 62
     3
100
AcDbText
 10
417.183591
 20
160.8519459304041
 30
0.0
 40
3.2
  1
日
  7
高3.2
100
AcDbText
  0
TEXT
  5
E5
330
6B
100
AcDbEntity
  8
0
 62
     3
100
AcDbText
 10
426.060465
 20
160.8519459304041
 30
0.0
 40
3.2
  1
付
  7
高3.2
100
AcDbText
  0
TEXT
  5
E6
330
6B
100
AcDbEntity
  8
0
 62
     3
100
AcDbText
 10
417.009433
 20
165.7998509999999
 30
0.0
 40
3.2
  1
図
  7
高3.2
100
AcDbText
  0
TEXT
  5
E7
330
6B
100
AcDbEntity
  8
0
 62
     3
100
AcDbText
 10
435.665328
 20
165.7998509999999
 30
0.0
 40
3.2
  1
面
  7
高3.2
100
AcDbText
  0
TEXT
  5
E8
330
6B
100
AcDbEntity
  8
0
 62
     3
100
AcDbText
 10
454.321223
 20
165.7998509999999
 30
0.0
 40
3.2
  1
略
  7
高3.2
100
AcDbText
  0
TEXT
  5
E9
330
6B
100
AcDbEntity
  8
0
 62
     3
100
AcDbText
 10
472.9771179999998
 20
165.7998509999999
 30
0.0
 40
3.2
  1
歴
  7
高3.2
100
AcDbText
  0
TEXT
  5
EA
330
6B
100
AcDbEntity
  8
0
 62
     3
100
AcDbText
 10
404.827006
 20
160.9248509999999
 30
0.0
 40
3.2
  1
記
  7
高3.2
100
AcDbText
  0
TEXT
  5
EB
330
6B
100
AcDbEntity
  8
0
 62
     3
100
AcDbText
 10
411.079914
 20
160.9248509999999
 30
0.0
 40
3.2
  1
号
  7
高3.2
100
AcDbText
  0
LINE
  5
EC
330
6B
100
AcDbEntity
  8
0
 62
     7
100
AcDbLine
 10
487.8246419999999
 20
150.299851
 30
0.0
 11
404.224642
 21
150.2998509999999
 31
0.0
  0
LINE
  5
EF
330
6B
100
AcDbEntity
  8
0
 62
     2
100
AcDbLine
 10
374.908994
 20
171.442684
 30
0.0
 11
375.344742
 21
171.215216
 31
0.0
  0
LINE
  5
F0
330
6B
100
AcDbEntity
  8
0
 62
     2
100
AcDbLine
 10
374.908994
 20
167.712054
 30
0.0
 11
375.344742
 21
167.939522
 31
0.0
  0
LINE
  5
F1
330
6B
100
AcDbEntity
  8
0
 62
     2
100
AcDbLine
 10
375.344742
 20
171.215216
 30
0.0
 11
375.344742
 21
167.939522
 31
0.0
  0
LINE
  5
F2
330
6B
100
AcDbEntity
  8
0
 62
     2
100
AcDbLine
 10
376.44826
 20
167.712054
 30
0.0
 11
376.012512
 21
167.939522
 31
0.0
  0
LINE
  5
F3
330
6B
100
AcDbEntity
  8
0
 62
     2
100
AcDbLine
 10
376.012512
 20
169.936381
 30
0.0
 11
376.012512
 21
167.939522
 31
0.0
  0
LINE
  5
F4
330
6B
100
AcDbEntity
  8
0
 62
     2
100
AcDbLine
 10
378.990122
 20
171.442684
 30
0.0
 11
378.554375
 21
171.215216
 31
0.0
  0
LINE
  5
F5
330
6B
100
AcDbEntity
  8
0
 62
     2
100
AcDbLine
 10
377.450857
 20
171.442684
 30
0.0
 11
377.886605
 21
171.215216
 31
0.0
  0
LINE
  5
F6
330
6B
100
AcDbEntity
  8
0
 62
     2
100
AcDbLine
 10
377.886605
 20
171.215216
 30
0.0
 11
377.886605
 21
169.772879
 31
0.0
  0
LINE
  5
F7
330
6B
100
AcDbEntity
  8
0
 62
     2
100
AcDbLine
 10
378.554375
 20
171.215216
 30
0.0
 11
378.554375
 21
167.500493
 31
0.0
  0
LINE
  5
F8
330
6B
100
AcDbEntity
  8
0
 62
     2
100
AcDbLine
 10
379.20542
 20
171.442682
 30
0.0
 11
379.641166
 21
171.21521
 31
0.0
  0
LINE
  5
F9
330
6B
100
AcDbEntity
  8
0
 62
     2
100
AcDbLine
 10
379.205342
 20
167.712104
 30
0.0
 11
379.641098
 21
167.939557
 31
0.0
  0
LINE
  5
FA
330
6B
100
AcDbEntity
  8
0
 62
     2
100
AcDbLine
 10
379.641166
 20
171.21521
 30
0.0
 11
379.641166
 21
167.939557
 31
0.0
  0
LINE
  5
FB
330
6B
100
AcDbEntity
  8
0
 62
     2
100
AcDbLine
 10
381.134956
 20
171.442658
 30
0.0
 11
380.699205
 21
171.215196
 31
0.0
  0
LINE
  5
FC
330
6B
100
AcDbEntity
  8
0
 62
     2
100
AcDbLine
 10
380.699205
 20
171.215196
 30
0.0
 11
380.699205
 21
167.939542
 31
0.0
  0
LINE
  5
FD
330
6B
100
AcDbEntity
  8
0
 62
     2
100
AcDbLine
 10
381.134956
 20
167.71208
 30
0.0
 11
380.699205
 21
167.939542
 31
0.0
  0
LINE
  5
FE
330
6B
100
AcDbEntity
  8
0
 62
     2
100
AcDbLine
 10
384.825209
 20
171.442617
 30
0.0
 11
385.260957
 21
171.215147
 31
0.0
  0
LINE
  5
FF
330
6B
100
AcDbEntity
  8
0
 62
     2
100
AcDbLine
 10
385.260957
 20
171.215147
 30
0.0
 11
385.260899
 21
167.939493
 31
0.0
  0
LINE
  5
100
330
6B
100
AcDbEntity
  8
0
 62
     2
100
AcDbLine
 10
384.825144
 20
167.7120389999999
 30
0.0
 11
385.260899
 21
167.939493
 31
0.0
  0
LINE
  5
101
330
6B
100
AcDbEntity
  8
0
 62
     2
100
AcDbLine
 10
386.77747
 20
171.442617
 30
0.0
 11
386.341723
 21
171.215147
 31
0.0
  0
LINE
  5
102
330
6B
100
AcDbEntity
  8
0
 62
     2
100
AcDbLine
 10
386.777536
 20
167.7120389999999
 30
0.0
 11
386.34178
 21
167.939493
 31
0.0
  0
LINE
  5
103
330
6B
100
AcDbEntity
  8
0
 62
     2
100
AcDbLine
 10
386.981198
 20
171.442617
 30
0.0
 11
387.416945
 21
171.215147
 31
0.0
  0
LINE
  5
104
330
6B
100
AcDbEntity
  8
0
 62
     2
100
AcDbLine
 10
386.981133
 20
167.7120389999999
 30
0.0
 11
387.416888
 21
167.939493
 31
0.0
  0
LINE
  5
105
330
6B
100
AcDbEntity
  8
0
 62
     2
100
AcDbLine
 10
388.933459
 20
171.442617
 30
0.0
 11
388.497712
 21
171.215147
 31
0.0
  0
LINE
  5
106
330
6B
100
AcDbEntity
  8
0
 62
     2
100
AcDbLine
 10
388.497712
 20
171.215147
 30
0.0
 11
388.497769
 21
167.939493
 31
0.0
  0
LINE
  5
107
330
6B
100
AcDbEntity
  8
0
 62
     2
100
AcDbLine
 10
388.933524
 20
167.7120389999999
 30
0.0
 11
388.497769
 21
167.939493
 31
0.0
  0
LINE
  5
108
330
6B
100
AcDbEntity
  8
0
 62
     2
100
AcDbLine
 10
387.416921
 20
169.788014
 30
0.0
 11
386.341748
 21
169.788014
 31
0.0
  0
LINE
  5
109
330
6B
100
AcDbEntity
  8
0
 62
     2
100
AcDbLine
 10
387.416913
 20
169.366724
 30
0.0
 11
386.341756
 21
169.366724
 31
0.0
  0
LINE
  5
10A
330
6B
100
AcDbEntity
  8
0
 62
     2
100
AcDbLine
 10
387.416945
 20
171.215147
 30
0.0
 11
387.416921
 21
169.788014
 31
0.0
  0
LINE
  5
10B
330
6B
100
AcDbEntity
  8
0
 62
     2
100
AcDbLine
 10
387.416913
 20
169.366724
 30
0.0
 11
387.416888
 21
167.939493
 31
0.0
  0
LINE
  5
10C
330
6B
100
AcDbEntity
  8
0
 62
     2
100
AcDbLine
 10
386.341723
 20
171.215147
 30
0.0
 11
386.341748
 21
169.788014
 31
0.0
  0
LINE
  5
10D
330
6B
100
AcDbEntity
  8
0
 62
     2
100
AcDbLine
 10
386.341756
 20
169.366724
 30
0.0
 11
386.34178
 21
167.939493
 31
0.0
  0
LINE
  5
10E
330
6B
100
AcDbEntity
  8
0
 62
     2
100
AcDbLine
 10
389.140418
 20
171.442617
 30
0.0
 11
389.576166
 21
171.215147
 31
0.0
  0
LINE
  5
10F
330
6B
100
AcDbEntity
  8
0
 62
     2
100
AcDbLine
 10
389.576166
 20
171.215147
 30
0.0
 11
389.576108
 21
167.939493
 31
0.0
  0
LINE
  5
110
330
6B
100
AcDbEntity
  8
0
 62
     2
100
AcDbLine
 10
389.140353
 20
167.7120389999999
 30
0.0
 11
389.576108
 21
167.939493
 31
0.0
  0
LINE
  5
111
330
6B
100
AcDbEntity
  8
0
 62
     2
100
AcDbLine
 10
391.069929
 20
171.442617
 30
0.0
 11
390.634182
 21
171.215147
 31
0.0
  0
LINE
  5
112
330
6B
100
AcDbEntity
  8
0
 62
     2
100
AcDbLine
 10
390.634182
 20
171.215147
 30
0.0
 11
390.634239
 21
167.939493
 31
0.0
  0
LINE
  5
113
330
6B
100
AcDbEntity
  8
0
 62
     2
100
AcDbLine
 10
391.069994
 20
167.7120389999999
 30
0.0
 11
390.634239
 21
167.939493
 31
0.0
  0
LINE
  5
114
330
6B
100
AcDbEntity
  8
0
 62
     2
100
AcDbLine
 10
391.284288
 20
171.442617
 30
0.0
 11
391.720035
 21
171.215147
 31
0.0
  0
LINE
  5
115
330
6B
100
AcDbEntity
  8
0
 62
     2
100
AcDbLine
 10
391.720035
 20
171.215147
 30
0.0
 11
391.719978
 21
167.939493
 31
0.0
  0
LINE
  5
116
330
6B
100
AcDbEntity
  8
0
 62
     2
100
AcDbLine
 10
391.284223
 20
167.7120389999999
 30
0.0
 11
391.719978
 21
167.939493
 31
0.0
  0
ARC
  5
117
330
6B
100
AcDbEntity
  8
0
 62
     2
100
AcDbCircle
 10
383.433298
 20
169.586759
 30
0.0
 40
2.086285999999998
100
AcDbArc
 50
97.701524
 51
270.0
  0
ARC
  5
118
330
6B
100
AcDbEntity
  8
0
 62
     2
100
AcDbCircle
 10
396.313899
 20
169.565802
 30
0.0
 40
2.108943
100
AcDbArc
 50
0.31425
 51
69.00558199999998
  0
ARC
  5
119
330
6B
100
AcDbEntity
  8
0
 62
     2
100
AcDbCircle
 10
396.774574
 20
169.565802
 30
0.0
 40
2.108943
100
AcDbArc
 50
110.994418
 51
148.116611
  0
ARC
  5
11A
330
6B
100
AcDbEntity
  8
0
 62
     2
100
AcDbCircle
 10
396.313899
 20
169.588936
 30
0.0
 40
2.108943
100
AcDbArc
 50
290.994418
 51
359.68575
  0
ARC
  5
11B
330
6B
100
AcDbEntity
  8
0
 62
     2
100
AcDbCircle
 10
396.774574
 20
169.588936
 30
0.0
 40
2.108943
100
AcDbArc
 50
211.883389
 51
249.005582
  0
ARC
  5
11C
330
6B
100
AcDbEntity
  8
0
 62
     2
100
AcDbCircle
 10
396.544237
 20
170.440174
 30
0.0
 40
1.214070999999999
100
AcDbArc
 50
64.365172
 51
115.634828
  0
ARC
  5
11D
330
6B
100
AcDbEntity
  8
0
 62
     2
100
AcDbCircle
 10
396.544237
 20
168.714563
 30
0.0
 40
1.214070999999999
100
AcDbArc
 50
244.365172
 51
295.634828
  0
ARC
  5
11E
330
6B
100
AcDbEntity
  8
0
 62
     2
100
AcDbCircle
 10
396.544237
 20
170.463236
 30
0.0
 40
0.5958560000000001
100
AcDbArc
 50
19.486606
 51
160.513394
  0
ARC
  5
11F
330
6B
100
AcDbEntity
  8
0
 62
     2
100
AcDbCircle
 10
396.544237
 20
168.691502
 30
0.0
 40
0.5958560000000001
100
AcDbArc
 50
199.4866059999999
 51
340.513394
  0
ARC
  5
120
330
6B
100
AcDbEntity
  8
0
 62
     3
100
AcDbCircle
 10
391.801764
 20
147.349309
 30
0.0
 40
26.04
100
AcDbArc
 50
69.50571500000001
 51
81.689988
  0
ARC
  5
121
330
6B
100
AcDbEntity
  8
0
 62
     3
100
AcDbCircle
 10
391.801764
 20
191.805429
 30
0.0
 40
26.04
100
AcDbArc
 50
278.310012
 51
290.494285
  0
ARC
  5
122
330
6B
100
AcDbEntity
  8
0
 62
     3
100
AcDbCircle
 10
400.109968
 20
169.577369
 30
0.0
 40
2.31
100
AcDbArc
 50
290.494285
 51
69.50571500000001
  0
ARC
  5
123
330
6B
100
AcDbEntity
  8
0
 62
     3
100
AcDbCircle
 10
372.809968
 20
169.577369
 30
0.0
 40
2.31
100
AcDbArc
 50
110.494285
 51
249.505715
  0
ARC
  5
124
330
6B
100
AcDbEntity
  8
0
 62
     3
100
AcDbCircle
 10
381.118172
 20
147.349309
 30
0.0
 40
26.04
100
AcDbArc
 50
98.31001200000001
 51
110.494285
  0
ARC
  5
125
330
6B
100
AcDbEntity
  8
0
 62
     3
100
AcDbCircle
 10
381.118172
 20
191.805429
 30
0.0
 40
26.04
100
AcDbArc
 50
249.505715
 51
261.689988
  0
ARC
  5
126
330
6B
100
AcDbEntity
  8
0
 62
     3
100
AcDbCircle
 10
386.459968
 20
110.777369
 30
0.0
 40
63.0
100
AcDbArc
 50
81.689988
 51
98.31001200000001
  0
ARC
  5
127
330
6B
100
AcDbEntity
  8
0
 62
     3
100
AcDbCircle
 10
386.459968
 20
228.377369
 30
0.0
 40
63.0
100
AcDbArc
 50
261.689988
 51
278.310012
  0
ARC
  5
128
330
6B
100
AcDbEntity
  8
0
 62
     3
100
AcDbCircle
 10
386.459968
 20
110.777369
 30
0.0
 40
62.37
100
AcDbArc
 50
81.689988
 51
98.31001200000001
  0
ARC
  5
129
330
6B
100
AcDbEntity
  8
0
 62
     3
100
AcDbCircle
 10
386.459968
 20
228.377369
 30
0.0
 40
62.37
100
AcDbArc
 50
261.689988
 51
278.310012
  0
ARC
  5
12A
330
6B
100
AcDbEntity
  8
0
 62
     3
100
AcDbCircle
 10
391.801764
 20
191.805429
 30
0.0
 40
25.41
100
AcDbArc
 50
278.310012
 51
290.494285
  0
ARC
  5
12B
330
6B
100
AcDbEntity
  8
0
 62
     3
100
AcDbCircle
 10
391.801764
 20
147.349309
 30
0.0
 40
25.41
100
AcDbArc
 50
69.50571500000001
 51
81.689988
  0
ARC
  5
12C
330
6B
100
AcDbEntity
  8
0
 62
     3
100
AcDbCircle
 10
400.109968
 20
169.577369
 30
0.0
 40
1.679999999999999
100
AcDbArc
 50
290.494285
 51
69.50571500000001
  0
ARC
  5
12D
330
6B
100
AcDbEntity
  8
0
 62
     3
100
AcDbCircle
 10
372.809968
 20
169.577369
 30
0.0
 40
1.679999999999999
100
AcDbArc
 50
110.494285
 51
249.505715
  0
ARC
  5
12E
330
6B
100
AcDbEntity
  8
0
 62
     3
100
AcDbCircle
 10
381.118172
 20
147.349309
 30
0.0
 40
25.41
100
AcDbArc
 50
98.31001200000001
 51
110.494285
  0
ARC
  5
12F
330
6B
100
AcDbEntity
  8
0
 62
     3
100
AcDbCircle
 10
381.118172
 20
191.805429
 30
0.0
 40
25.41
100
AcDbArc
 50
249.505715
 51
261.689988
  0
LINE
  5
130
330
6B
100
AcDbEntity
  8
0
 62
     2
100
AcDbLine
 10
391.069929
 20
167.500493
 30
0.0
 11
389.140418
 21
167.500493
 31
0.0
  0
LINE
  5
131
330
6B
100
AcDbEntity
  8
0
 62
     2
100
AcDbLine
 10
391.069929
 20
167.712054
 30
0.0
 11
391.069929
 21
167.500493
 31
0.0
  0
LINE
  5
132
330
6B
100
AcDbEntity
  8
0
 62
     2
100
AcDbLine
 10
388.93346
 20
171.654147
 30
0.0
 11
386.981198
 21
171.654147
 31
0.0
  0
LINE
  5
133
330
6B
100
AcDbEntity
  8
0
 62
     2
100
AcDbLine
 10
388.93346
 20
171.654147
 30
0.0
 11
388.93346
 21
171.442684
 31
0.0
  0
LINE
  5
134
330
6B
100
AcDbEntity
  8
0
 62
     2
100
AcDbLine
 10
388.93346
 20
167.712054
 30
0.0
 11
388.93346
 21
167.500394
 31
0.0
  0
LINE
  5
135
330
6B
100
AcDbEntity
  8
0
 62
     2
100
AcDbLine
 10
388.93346
 20
167.500394
 30
0.0
 11
386.981198
 21
167.500394
 31
0.0
  0
LINE
  5
136
330
6B
100
AcDbEntity
  8
0
 62
     2
100
AcDbLine
 10
391.069929
 20
171.654245
 30
0.0
 11
391.069929
 21
171.442684
 31
0.0
  0
LINE
  5
137
330
6B
100
AcDbEntity
  8
0
 62
     2
100
AcDbLine
 10
391.069929
 20
171.654245
 30
0.0
 11
389.140418
 21
171.654245
 31
0.0
  0
LINE
  5
138
330
6B
100
AcDbEntity
  8
0
 62
     2
100
AcDbLine
 10
389.140418
 20
171.654245
 30
0.0
 11
389.140418
 21
171.442684
 31
0.0
  0
LINE
  5
139
330
6B
100
AcDbEntity
  8
0
 62
     2
100
AcDbLine
 10
391.284287
 20
167.712054
 30
0.0
 11
391.284287
 21
167.500493
 31
0.0
  0
LINE
  5
13A
330
6B
100
AcDbEntity
  8
0
 62
     2
100
AcDbLine
 10
393.268588
 20
167.500493
 30
0.0
 11
391.284287
 21
167.500493
 31
0.0
  0
LINE
  5
13B
330
6B
100
AcDbEntity
  8
0
 62
     2
100
AcDbLine
 10
392.778051
 20
170.986476
 30
0.0
 11
392.778051
 21
168.168262
 31
0.0
  0
LINE
  5
13C
330
6B
100
AcDbEntity
  8
0
 62
     2
100
AcDbLine
 10
392.778051
 20
168.168262
 30
0.0
 11
392.9681
 21
168.168262
 31
0.0
  0
ARC
  5
13D
330
6B
100
AcDbEntity
  8
0
 62
     2
100
AcDbCircle
 10
391.996315
 20
169.577369
 30
0.0
 40
1.711709999999999
100
AcDbArc
 50
304.591955
 51
55.408045
  0
LINE
  5
13E
330
6B
100
AcDbEntity
  8
0
 62
     2
100
AcDbLine
 10
393.268588
 20
171.654245
 30
0.0
 11
391.284287
 21
171.654245
 31
0.0
  0
LINE
  5
13F
330
6B
100
AcDbEntity
  8
0
 62
     2
100
AcDbLine
 10
391.284287
 20
171.654245
 30
0.0
 11
391.284287
 21
171.442684
 31
0.0
  0
LINE
  5
140
330
6B
100
AcDbEntity
  8
0
 62
     2
100
AcDbLine
 10
389.140418
 20
167.712054
 30
0.0
 11
389.140418
 21
167.500493
 31
0.0
  0
LINE
  5
141
330
6B
100
AcDbEntity
  8
0
 62
     2
100
AcDbLine
 10
392.778051
 20
170.986476
 30
0.0
 11
392.9681
 21
170.986476
 31
0.0
  0
LINE
  5
142
330
6B
100
AcDbEntity
  8
0
 62
     2
100
AcDbLine
 10
381.134892
 20
167.712054
 30
0.0
 11
381.134888
 21
167.500473
 31
0.0
  0
LINE
  5
143
330
6B
100
AcDbEntity
  8
0
 62
     2
100
AcDbLine
 10
379.205376
 20
167.500512
 30
0.0
 11
381.134888
 21
167.500479
 31
0.0
  0
LINE
  5
144
330
6B
100
AcDbEntity
  8
0
 62
     2
100
AcDbLine
 10
374.908994
 20
167.500493
 30
0.0
 11
376.44826
 21
167.500493
 31
0.0
  0
ARC
  5
145
330
6B
100
AcDbEntity
  8
0
 62
     2
100
AcDbCircle
 10
369.927052
 20
169.626276
 30
0.0
 40
14.713566
100
AcDbArc
 50
353.866006
 51
357.694034
  0
LINE
  5
146
330
6B
100
AcDbEntity
  8
0
 62
     2
100
AcDbLine
 10
383.643632
 20
169.037908
 30
0.0
 11
384.628702
 21
169.034263
 31
0.0
  0
LINE
  5
189
330
6B
100
AcDbEntity
  8
0
 62
     2
100
AcDbLine
 10
383.64761
 20
170.113123
 30
0.0
 11
384.632681
 21
170.109478
 31
0.0
  0
ARC
  5
18A
330
6B
100
AcDbEntity
  8
0
 62
     2
100
AcDbCircle
 10
369.927052
 20
169.626276
 30
0.0
 40
14.713566
100
AcDbArc
 50
1.881965999999999
 51
5.709994
  0
LINE
  5
18B
330
6B
100
AcDbEntity
  8
0
 62
     2
100
AcDbLine
 10
381.134961
 20
171.654226
 30
0.0
 11
381.134957
 21
171.442684
 31
0.0
  0
LINE
  5
18C
330
6B
100
AcDbEntity
  8
0
 62
     2
100
AcDbLine
 10
379.205449
 20
171.654265
 30
0.0
 11
381.134961
 21
171.654231
 31
0.0
  0
LINE
  5
18D
330
6B
100
AcDbEntity
  8
0
 62
     2
100
AcDbLine
 10
379.20538
 20
167.712054
 30
0.0
 11
379.205376
 21
167.500512
 31
0.0
  0
LINE
  5
18E
330
6B
100
AcDbEntity
  8
0
 62
     2
100
AcDbLine
 10
379.205449
 20
171.654265
 30
0.0
 11
379.205445
 21
171.442684
 31
0.0
  0
LINE
  5
18F
330
6B
100
AcDbEntity
  8
0
 62
     2
100
AcDbLine
 10
376.44826
 20
167.712054
 30
0.0
 11
376.44826
 21
167.500493
 31
0.0
  0
LINE
  5
190
330
6B
100
AcDbEntity
  8
0
 62
     2
100
AcDbLine
 10
376.012512
 20
169.936381
 30
0.0
 11
377.534942
 21
167.500493
 31
0.0
  0
LINE
  5
191
330
6B
100
AcDbEntity
  8
0
 62
     2
100
AcDbLine
 10
377.534942
 20
167.500493
 30
0.0
 11
378.554375
 21
167.500493
 31
0.0
  0
LINE
  5
192
330
6B
100
AcDbEntity
  8
0
 62
     2
100
AcDbLine
 10
378.990122
 20
171.654245
 30
0.0
 11
378.990122
 21
171.442684
 31
0.0
  0
LINE
  5
193
330
6B
100
AcDbEntity
  8
0
 62
     2
100
AcDbLine
 10
377.450857
 20
171.654245
 30
0.0
 11
378.990122
 21
171.654245
 31
0.0
  0
LINE
  5
194
330
6B
100
AcDbEntity
  8
0
 62
     2
100
AcDbLine
 10
377.450857
 20
171.654245
 30
0.0
 11
377.450857
 21
171.442684
 31
0.0
  0
LINE
  5
195
330
6B
100
AcDbEntity
  8
0
 62
     2
100
AcDbLine
 10
377.886605
 20
169.772879
 30
0.0
 11
376.651958
 21
171.654245
 31
0.0
  0
LINE
  5
196
330
6B
100
AcDbEntity
  8
0
 62
     2
100
AcDbLine
 10
374.908994
 20
171.654245
 30
0.0
 11
376.651958
 21
171.654245
 31
0.0
  0
LINE
  5
197
330
6B
100
AcDbEntity
  8
0
 62
     2
100
AcDbLine
 10
384.825209
 20
171.654147
 30
0.0
 11
386.777471
 21
171.654147
 31
0.0
  0
LINE
  5
198
330
6B
100
AcDbEntity
  8
0
 62
     2
100
AcDbLine
 10
384.825209
 20
171.442684
 30
0.0
 11
384.825209
 21
171.654147
 31
0.0
  0
LINE
  5
199
330
6B
100
AcDbEntity
  8
0
 62
     2
100
AcDbLine
 10
384.825209
 20
167.500394
 30
0.0
 11
384.825209
 21
167.712054
 31
0.0
  0
LINE
  5
19A
330
6B
100
AcDbEntity
  8
0
 62
     2
100
AcDbLine
 10
384.825209
 20
167.500394
 30
0.0
 11
386.777471
 21
167.500394
 31
0.0
  0
LINE
  5
19B
330
6B
100
AcDbEntity
  8
0
 62
     2
100
AcDbLine
 10
386.981198
 20
167.712054
 30
0.0
 11
386.981198
 21
167.500394
 31
0.0
  0
LINE
  5
19C
330
6B
100
AcDbEntity
  8
0
 62
     2
100
AcDbLine
 10
386.777471
 20
167.712054
 30
0.0
 11
386.777471
 21
167.500394
 31
0.0
  0
LINE
  5
19D
330
6B
100
AcDbEntity
  8
0
 62
     2
100
AcDbLine
 10
386.777471
 20
171.442684
 30
0.0
 11
386.777471
 21
171.654147
 31
0.0
  0
LINE
  5
19E
330
6B
100
AcDbEntity
  8
0
 62
     2
100
AcDbLine
 10
386.981198
 20
171.442684
 30
0.0
 11
386.981198
 21
171.654147
 31
0.0
  0
LINE
  5
19F
330
6B
100
AcDbEntity
  8
0
 62
     2
100
AcDbLine
 10
374.908994
 20
167.712054
 30
0.0
 11
374.908994
 21
167.500493
 31
0.0
  0
LINE
  5
1A0
330
6B
100
AcDbEntity
  8
0
 62
     2
100
AcDbLine
 10
374.908994
 20
171.654245
 30
0.0
 11
374.908994
 21
171.442684
 31
0.0
  0
ARC
  5
1A1
330
6B
100
AcDbEntity
  8
0
 62
     2
100
AcDbCircle
 10
393.478588
 20
170.013117
 30
0.0
 40
1.641127999999999
100
AcDbArc
 50
17.308749
 51
23.765071
  0
ARC
  5
1A2
330
6B
100
AcDbEntity
  8
0
 62
     2
100
AcDbCircle
 10
392.080315
 20
169.577369
 30
0.0
 40
3.105725999999998
100
AcDbArc
 50
342.691251
 51
17.308566
  0
ARC
  5
1A3
330
6B
100
AcDbEntity
  8
0
 62
     2
100
AcDbCircle
 10
393.478588
 20
169.141621
 30
0.0
 40
1.641127999999999
100
AcDbArc
 50
336.234929
 51
342.691251
  0
ARC
  5
1A4
330
6B
100
AcDbEntity
  8
0
 62
     2
100
AcDbCircle
 10
393.268588
 20
170.013117
 30
0.0
 40
1.641127999999999
100
AcDbArc
 50
17.308749
 51
90.0
  0
ARC
  5
1A5
330
6B
100
AcDbEntity
  8
0
 62
     2
100
AcDbCircle
 10
391.870315
 20
169.577369
 30
0.0
 40
3.105725999999998
100
AcDbArc
 50
342.691251
 51
17.308566
  0
ARC
  5
1A6
330
6B
100
AcDbEntity
  8
0
 62
     2
100
AcDbCircle
 10
393.268588
 20
169.141621
 30
0.0
 40
1.641127999999999
100
AcDbArc
 50
270.0
 51
342.691251
  0
ARC
  5
1A7
330
6B
100
AcDbEntity
  8
0
 62
     2
100
AcDbCircle
 10
383.144648
 20
169.577369
 30
0.0
 40
2.076875999999999
100
AcDbArc
 50
46.75287999999999
 51
89.749998
  0
ARC
  5
1A8
330
6B
100
AcDbEntity
  8
0
 62
     2
100
AcDbCircle
 10
383.144648
 20
169.577369
 30
0.0
 40
2.076875999999999
100
AcDbArc
 50
273.976333
 51
312.82312
  0
ARC
  5
1A9
330
6B
100
AcDbEntity
  8
0
 62
     2
100
AcDbCircle
 10
394.586456
 20
169.545307
 30
0.0
 40
2.755888999999998
100
AcDbArc
 50
0.6665840000000001
 51
23.903928
  0
ARC
  5
1AA
330
6B
100
AcDbEntity
  8
0
 62
     2
100
AcDbCircle
 10
398.502018
 20
169.545307
 30
0.0
 40
2.755888999999998
100
AcDbArc
 50
156.096072
 51
179.333416
  0
ARC
  5
1AB
330
6B
100
AcDbEntity
  8
0
 62
     2
100
AcDbCircle
 10
394.586456
 20
169.60943
 30
0.0
 40
2.755888999999998
100
AcDbArc
 50
336.096072
 51
359.333416
  0
ARC
  5
1AC
330
6B
100
AcDbEntity
  8
0
 62
     2
100
AcDbCircle
 10
398.502018
 20
169.60943
 30
0.0
 40
2.755888999999998
100
AcDbArc
 50
180.666584
 51
203.903928
  0
LINE
  5
1AF
330
6B
100
AcDbEntity
  8
0
 62
     3
100
AcDbLine
 10
462.082344
 20
-90.679037
 30
0.0
 11
462.082344
 21
-67.67903699999999
 31
0.0
  0
LINE
  5
1B1
330
6B
100
AcDbEntity
  8
0
 62
     3
100
AcDbLine
 10
409.0287339999998
 20
-97.67903699999999
 30
0.0
 11
409.0287339999998
 21
-83.67903700000002
 31
0.0
  0
TEXT
  5
1B3
330
6B
100
AcDbEntity
  8
0
 62
     3
100
AcDbText
 10
438.092662
 20
-71.47392100000002
 30
0.0
 40
2.0
  1
A
 41
0.7
100
AcDbText
  0
TEXT
  5
1B4
330
6B
100
AcDbEntity
  8
0
 62
     3
100
AcDbText
 10
440.6279480000002
 20
-71.47392100000002
 30
0.0
 40
2.0
  1
P
 41
0.7
100
AcDbText
  0
TEXT
  5
1B5
330
6B
100
AcDbEntity
  8
0
 62
     3
100
AcDbText
 10
443.163234
 20
-71.47392100000002
 30
0.0
 40
2.0
  1
P
 41
0.7
100
AcDbText
  0
TEXT
  5
1B6
330
6B
100
AcDbEntity
  8
0
 62
     3
100
AcDbText
 10
445.69852
 20
-71.47392100000002
 30
0.0
 40
2.0
  1
D
 41
0.7
100
AcDbText
  0
TEXT
  5
1B7
330
6B
100
AcDbEntity
  8
0
 62
     3
100
AcDbText
 10
451.067204
 20
-71.47392100000002
 30
0.0
 40
2.0
  1
C
 41
0.7
100
AcDbText
  0
TEXT
  5
1B8
330
6B
100
AcDbEntity
  8
0
 62
     3
100
AcDbText
 10
453.60249
 20
-71.47392100000002
 30
0.0
 40
2.0
  1
H
 41
0.7
100
AcDbText
  0
TEXT
  5
1B9
330
6B
100
AcDbEntity
  8
0
 62
     3
100
AcDbText
 10
456.137776
 20
-71.47392100000002
 30
0.0
 40
2.0
  1
C
 41
0.7
100
AcDbText
  0
TEXT
  5
1BA
330
6B
100
AcDbEntity
  8
0
 62
     3
100
AcDbText
 10
458.6730619999998
 20
-71.47392100000002
 30
0.0
 40
2.0
  1
K
 41
0.7
100
AcDbText
  0
TEXT
  5
1BB
330
6B
100
AcDbEntity
  8
0
 62
     3
100
AcDbText
 10
464.347029
 20
-71.47392100000002
 30
0.0
 40
2.0
  1
DESN
 41
1.216762999999998
100
AcDbText
  0
TEXT
  5
1BC
330
6B
100
AcDbEntity
  8
0
 62
     3
100
AcDbText
 10
379.3406700000002
 20
-100.820419
 30
0.0
 40
2.0
  1
NICHIDO IND.CO.LTD
 41
1.274876
100
AcDbText
  0
LINE
  5
1BD
330
6B
100
AcDbEntity
  8
0
 62
     3
100
AcDbLine
 10
389.723699
 20
-67.67903700000001
 30
0.0
 11
389.723699
 21
-90.679037
 31
0.0
  0
LINE
  5
1BE
330
6B
100
AcDbEntity
  8
0
 62
     3
100
AcDbLine
 10
436.082344
 20
-67.67903700000001
 30
0.0
 11
436.082344
 21
-107.34476
 31
0.0
  0
LINE
  5
1C3
330
6B
100
AcDbEntity
  8
0
 62
     3
100
AcDbLine
 10
449.082344
 20
-67.67903700000001
 30
0.0
 11
449.082344
 21
-97.67903699999999
 31
0.0
  0
TEXT
  5
1C4
330
6B
100
AcDbEntity
  8
0
 62
     3
100
AcDbText
 10
437.194788
 20
-96.81435
 30
0.0
 40
3.2
  1
作成日
 41
1.017225999999997
100
AcDbText
  0
LINE
  5
1C5
330
6B
100
AcDbEntity
  8
0
 62
     3
100
AcDbLine
 10
487.781707
 20
-67.67903700000001
 30
0.0
 11
376.478265
 21
-67.67903700000001
 31
0.0
  0
LINE
  5
1C6
330
6B
100
AcDbEntity
  8
0
 62
     3
100
AcDbLine
 10
475.082344
 20
-90.679037
 30
0.0
 11
475.082344
 21
-67.67903700000001
 31
0.0
  0
TEXT
  5
1C7
330
6B
100
AcDbEntity
  8
0
 62
     3
100
AcDbText
 10
478.406147
 20
-71.388103
 30
0.0
 40
1.8
  1
D
 41
0.666667
100
AcDbText
  0
TEXT
  5
1C8
330
6B
100
AcDbEntity
  8
0
 62
     3
100
AcDbText
 10
481.2227749999998
 20
-71.388103
 30
0.0
 40
1.8
  1
E
 41
0.666667
100
AcDbText
  0
TEXT
  5
1C9
330
6B
100
AcDbEntity
  8
0
 62
     3
100
AcDbText
 10
484.039403
 20
-71.388103
 30
0.0
 40
1.8
  1
F
 41
0.666667
100
AcDbText
  0
TEXT
  5
1CA
330
6B
100
AcDbEntity
  8
0
 62
     3
100
AcDbText
 10
478.406147
 20
-75.380656
 30
0.0
 40
3.2
  1
製図
 41
1.076369
100
AcDbText
  0
LINE
  5
1CB
330
6B
100
AcDbEntity
  8
0
 62
     3
100
AcDbLine
 10
376.478265
 20
-67.67903700000001
 30
0.0
 11
376.478265
 21
-107.34476
 31
0.0
  0
TEXT
  5
1CC
330
6B
100
AcDbEntity
  8
0
 62
     3
100
AcDbText
 10
377.854917
 20
-107.012294
 30
0.0
 40
5.0
  1
日動工業株式会社
 41
0.833333
100
AcDbText
  0
LINE
  5
1CD
330
6B
100
AcDbEntity
  8
0
 62
     3
100
AcDbLine
 10
419.360669
 20
-83.67903700000002
 30
0.0
 11
419.360669
 21
-107.34476
 31
0.0
  0
LINE
  5
1CE
330
6B
100
AcDbEntity
  8
0
 62
     3
100
AcDbLine
 10
419.360669
 20
-102.511898
 30
0.0
 11
436.082344
 21
-102.511898
 31
0.0
  0
TEXT
  5
1CF
330
6B
100
AcDbEntity
  8
0
 62
     3
100
AcDbText
 10
419.947271
 20
-101.695468
 30
0.0
 40
3.2
  1
出図コード
 41
0.8356860000000001
100
AcDbText
  0
LINE
  5
1D1
330
6B
100
AcDbEntity
  8
0
 62
     3
100
AcDbLine
 10
376.4782649999999
 20
-97.67903699999999
 30
0.0
 11
487.781707
 21
-97.67903699999999
 31
0.0
  0
LINE
  5
1D3
330
6B
100
AcDbEntity
  8
0
 62
     3
100
AcDbLine
 10
376.4782649999999
 20
-76.679037
 30
0.0
 11
487.781707
 21
-76.679037
 31
0.0
  0
LINE
  5
1D9
330
6B
100
AcDbEntity
  8
0
 62
     3
100
AcDbLine
 10
376.478265
 20
-83.67903700000002
 30
0.0
 11
436.082344
 21
-83.67903700000002
 31
0.0
  0
LINE
  5
1DF
330
6B
100
AcDbEntity
  8
0
 62
     3
100
AcDbLine
 10
376.478265
 20
-90.67903699999998
 30
0.0
 11
487.781707
 21
-90.679037
 31
0.0
  0
TEXT
  5
1E0
330
6B
100
AcDbEntity
  8
0
 62
     3
100
AcDbText
 10
419.814722
 20
-106.742565
 30
0.0
 40
3.2
  1
ZK-A4Y
 41
0.8112849999999999
100
AcDbText
  0
LINE
  5
1E1
330
6B
100
AcDbEntity
  8
0
 62
     3
100
AcDbLine
 10
307.824642
 20
169.65524
 30
0.0
 11
307.824642
 21
-107.34476
 31
0.0
  0
LINE
  5
1E2
330
6B
100
AcDbEntity
  8
0
 62
     3
100
AcDbLine
 10
487.8246419999999
 20
-107.34476
 30
0.0
 11
487.8246419999999
 21
169.65524
 31
0.0
  0
LINE
  5
1E3
330
6B
100
AcDbEntity
  8
0
 62
     3
100
AcDbLine
 10
487.8246419999999
 20
-107.34476
 30
0.0
 11
307.824642
 21
-107.34476
 31
0.0
  0
TEXT
  5
1E8
330
6B
100
AcDbEntity
  8
0
 62
     3
100
AcDbText
 10
378.295662
 20
-71.509511
 30
0.0
 40
2.0
  1
CONPONENTS
 41
0.5331600000000001
100
AcDbText
  0
TEXT
  5
1E9
330
6B
100
AcDbEntity
  8
0
 62
     3
100
AcDbText
 10
377.945935
 20
-90.44168799999999
 30
0.0
 40
3.0
  1
材
 41
0.833333
100
AcDbText
  0
TEXT
  5
1EA
330
6B
100
AcDbEntity
  8
0
 62
     3
100
AcDbText
 10
385.481578
 20
-90.44168799999999
 30
0.0
 40
3.0
  1
質
 41
0.833333
100
AcDbText
  0
TEXT
  5
1EB
330
6B
100
AcDbEntity
  8
0
 62
     3
100
AcDbText
 10
378.034006
 20
-79.817164
 30
0.0
 40
2.0
  1
MODEL
 41
1.031072999999999
100
AcDbText
  0
TEXT
  5
1EC
330
6B
100
AcDbEntity
  8
0
 62
     3
100
AcDbText
 10
377.945935
 20
-86.75938
 30
0.0
 40
2.0
  1
MATERIAL
 41
0.659278
100
AcDbText
  0
TEXT
  5
1ED
330
6B
100
AcDbEntity
  8
0
 62
     3
100
AcDbText
 10
409.253215
 20
-90.44168799999999
 30
0.0
 40
3.0
  1
備
 41
0.833333
100
AcDbText
  0
TEXT
  5
1EE
330
6B
100
AcDbEntity
  8
0
 62
     3
100
AcDbText
 10
415.986217
 20
-90.44168799999999
 30
0.0
 40
3.0
  1
考
 41
0.833333
100
AcDbText
  0
TEXT
  5
1EF
330
6B
100
AcDbEntity
  8
0
 62
     3
100
AcDbText
 10
409.5509981565474
 20
-86.75938
 30
0.0
 40
2.0
  1
REMARKS
 41
0.675794
100
AcDbText
  0
TEXT
  5
1F0
330
6B
100
AcDbEntity
  8
0
 62
     3
100
AcDbText
 10
379.535664
 20
-93.67950099999999
 30
0.0
 40
2.0
  1
3AD
 41
1.42614
100
AcDbText
  0
TEXT
  5
1F1
330
6B
100
AcDbEntity
  8
0
 62
     3
100
AcDbText
 10
388.846644
 20
-93.51376700000001
 30
0.0
 40
2.0
  1
ANGLE
 41
1.669883999999995
100
AcDbText
  0
TEXT
  5
1F2
330
6B
100
AcDbEntity
  8
0
 62
     3
100
AcDbText
 10
409.780531
 20
-93.89060800000001
 30
0.0
 40
2.0
  1
SCALE
 41
0.7719630000000001
100
AcDbText
  0
TEXT
  5
1F3
330
6B
100
AcDbEntity
  8
0
 62
     3
100
AcDbText
 10
379.221794
 20
-97.67903699999999
 30
0.0
 40
3.0
  1
第
 41
0.833333
100
AcDbText
  0
TEXT
  5
1F4
330
6B
100
AcDbEntity
  8
0
 62
     3
100
AcDbText
 10
387.008644
 20
-97.67903699999999
 30
0.0
 40
3.0
  1
三
 41
0.833333
100
AcDbText
  0
TEXT
  5
1F5
330
6B
100
AcDbEntity
  8
0
 62
     3
100
AcDbText
 10
394.795494
 20
-97.67903699999999
 30
0.0
 40
3.0
  1
角
 41
0.833333
100
AcDbText
  0
TEXT
  5
1F6
330
6B
100
AcDbEntity
  8
0
 62
     3
100
AcDbText
 10
402.5823439999999
 20
-97.67903699999999
 30
0.0
 40
3.0
  1
法
 41
0.833333
100
AcDbText
  0
TEXT
  5
1F7
330
6B
100
AcDbEntity
  8
0
 62
     3
100
AcDbText
 10
409.643736
 20
-97.390608
 30
0.0
 40
3.0
  1
尺
 41
0.833333
100
AcDbText
  0
TEXT
  5
1F8
330
6B
100
AcDbEntity
  8
0
 62
     3
100
AcDbText
 10
416.376737
 20
-97.390608
 30
0.0
 40
3.0
  1
度
 41
0.833333
100
AcDbText
  0
TEXT
  5
1F9
330
6B
100
AcDbEntity
  8
0
 62
     3
100
AcDbText
 10
438.960008
 20
-75.22130799999998
 30
0.0
 40
3.0
  1
承認
 41
1.089472999999999
100
AcDbText
  0
TEXT
  5
1FA
330
6B
100
AcDbEntity
  8
0
 62
     3
100
AcDbText
 10
452.2028879999998
 20
-75.279037
 30
0.0
 40
3.0
  1
検図
 41
0.931761
100
AcDbText
  0
TEXT
  5
1FB
330
6B
100
AcDbEntity
  8
0
 62
     3
100
AcDbText
 10
465.2032849999998
 20
-75.279037
 30
0.0
 40
3.0
  1
設
 41
0.833333
100
AcDbText
  0
TEXT
  5
1FC
330
6B
100
AcDbEntity
  8
0
 62
     3
100
AcDbText
 10
469.693153
 20
-75.279037
 30
0.0
 40
3.0
  1
計
 41
0.833333
100
AcDbText
  0
TEXT
  5
1FD
330
6B
100
AcDbEntity
  8
0
 62
     3
100
AcDbText
 10
378.227133
 20
-75.99028100000002
 30
0.0
 40
3.0
  1
品
 41
0.833333
100
AcDbText
  0
TEXT
  5
1FE
330
6B
100
AcDbEntity
  8
0
 62
     3
100
AcDbText
 10
385.762776
 20
-75.99028100000002
 30
0.0
 40
3.0
  1
名
 41
0.833333
100
AcDbText
  0
TEXT
  5
1FF
330
6B
100
AcDbEntity
  8
0
 62
     3
100
AcDbText
 10
378.034006
 20
-83.44942299999997
 30
0.0
 40
3.0
  1
型
 41
0.833333
100
AcDbText
  0
TEXT
  5
200
330
6B
100
AcDbEntity
  8
0
 62
     3
100
AcDbText
 10
385.582096
 20
-83.44942299999997
 30
0.0
 40
3.0
  1
式
 41
0.833333
100
AcDbText
  0
LINE
  5
201
330
6B
100
AcDbEntity
  8
0
 62
     3
100
AcDbLine
 10
403.1523049999998
 20
169.65524
 30
0.0
 11
487.8246419999999
 21
169.65524
 31
0.0
  0
LINE
  5
202
330
6B
100
AcDbEntity
  8
0
 62
     3
100
AcDbLine
 10
369.739558
 20
169.65524
 30
0.0
 11
307.824642
 21
169.65524
 31
0.0
  0
LINE
  5
204
330
6B
100
AcDbEntity
  8
0
 62
     7
100
AcDbLine
 10
414.3300759999998
 20
165.1498509999999
 30
0.0
 11
414.3300759999998
 21
130.4998509999999
 31
0.0
  0
LINE
  5
205
330
6B
100
AcDbEntity
  8
0
 62
     7
100
AcDbLine
 10
487.8246419999999
 20
155.249851
 30
0.0
 11
404.224642
 21
155.2498509999999
 31
0.0
  0
LINE
  5
206
330
6B
100
AcDbEntity
  8
0
 62
     7
100
AcDbLine
 10
476.2271169999998
 20
165.1498509999999
 30
0.0
 11
476.2271169999998
 21
130.499851
 31
0.0
  0
LINE
  5
207
330
6B
100
AcDbEntity
  8
0
 62
     7
100
AcDbLine
 10
431.9354019999998
 20
165.1498509999999
 30
0.0
 11
431.9354019999991
 21
130.4998509999999
 31
0.0
  0
LINE
  5
209
330
6B
100
AcDbEntity
  8
0
 62
     7
100
AcDbLine
 10
404.224642
 20
160.1998509999999
 30
0.0
 11
487.8246419999999
 21
160.1998509999999
 31
0.0
  0
TEXT
  5
20A
330
6B
100
AcDbEntity
  8
0
 62
     3
100
AcDbText
 10
452.6658929999999
 20
-96.90462100000001
 30
0.0
 40
3.2
  1
2008.8.28
  7
高3.2
100
AcDbText
  0
TEXT
  5
20B
330
6B
100
AcDbEntity
  8
0
 62
     3
100
AcDbText
 10
424.0931093249967
 20
-96.79104000000002
 30
0.0
 40
3.2
  1
1/1
  7
高3.2
100
AcDbText
  0
TEXT
  5
20C
330
6B
100
AcDbEntity
  8
0
 62
     3
100
AcDbText
 10
422.229028
 20
-90.12598699999999
 30
0.0
 40
3.2
  1
交換球
  7
高3.2
100
AcDbText
  0
TEXT
  5
221
330
6B
100
AcDbEntity
  8
0
 62
     3
100
AcDbText
 10
391.148316
 20
-75.788133
 30
0.0
 40
4.5
  1
インバーター式蛍光灯
 41
0.8
  7
高4.5
100
AcDbText
  0
TEXT
  5
222
330
6B
100
AcDbEntity
  8
0
 62
     3
100
AcDbText
 10
376.58983
 20
-65.958607
 30
0.0
 40
4.5
  1
トルネード型蛍光灯
  7
高4.5
100
AcDbText
  0
LINE
  5
2F0
330
6B
100
AcDbEntity
  8
0
 62
     3
100
AcDbLine
 10
462.082344
 20
-67.67903700000001
 30
0.0
 11
462.082344
 21
-61.679037
 31
0.0
  0
LINE
  5
2F1
330
6B
100
AcDbEntity
  8
0
 62
     3
100
AcDbLine
 10
436.082344
 20
-67.67903700000001
 30
0.0
 11
436.082344
 21
-61.679037
 31
0.0
  0
LINE
  5
2F2
330
6B
100
AcDbEntity
  8
0
 62
     3
100
AcDbLine
 10
487.781707
 20
-61.679037
 30
0.0
 11
436.082344
 21
-61.679037
 31
0.0
  0
TEXT
  5
2F3
330
6B
100
AcDbEntity
  8
0
 62
     3
100
AcDbText
 10
442.077942
 20
-66.882688
 30
0.0
 40
4.5
  1
コード
  7
高4.5
100
AcDbText
  0
LINE
  5
2F4
330
6B
100
AcDbEntity
  8
0
 62
     7
100
AcDbLine
 10
409.042347
 20
159.460606
 30
0.0
 11
407.142347
 21
156.169709
 31
0.0
  0
LINE
  5
2F5
330
6B
100
AcDbEntity
  8
0
 62
     7
100
AcDbLine
 10
409.042347
 20
159.460606
 30
0.0
 11
410.942347
 21
156.169709
 31
0.0
  0
LINE
  5
2F6
330
6B
100
AcDbEntity
  8
0
 62
     7
100
AcDbLine
 10
407.142347
 20
156.169709
 30
0.0
 11
410.942347
 21
156.169709
 31
0.0
  0
LINE
  5
2F7
330
6B
100
AcDbEntity
  8
0
 62
     7
100
AcDbLine
 10
409.042347
 20
154.3043949999999
 30
0.0
 11
407.142347
 21
151.0134989999999
 31
0.0
  0
LINE
  5
2F8
330
6B
100
AcDbEntity
  8
0
 62
     7
100
AcDbLine
 10
409.042347
 20
154.3043949999999
 30
0.0
 11
410.942347
 21
151.0134989999999
 31
0.0
  0
LINE
  5
2F9
330
6B
100
AcDbEntity
  8
0
 62
     7
100
AcDbLine
 10
407.142347
 20
151.0134989999999
 30
0.0
 11
410.942347
 21
151.0134989999999
 31
0.0
  0
TEXT
  5
376
330
6B
100
AcDbEntity
  8
0
 62
     3
100
AcDbText
 10
398.978986
 20
-83.06466700000001
 30
0.0
 40
4.5
  1
F32W-T
  7
高4.5
100
AcDbText
  0
TEXT
  5
377
330
6B
100
AcDbEntity
  8
0
 62
     3
100
AcDbText
 10
442.8093661639851
 20
-106.1986963133668
 30
0.0
 40
6.299999999999998
  1
F32W-T
  7
高6.3
100
AcDbText
  0
TEXT
  5
378
330
6B
100
AcDbEntity
  8
0
 62
     3
100
AcDbText
 10
466.4026129325193
 20
-67.03490000000001
 30
0.0
 40
4.5
  1
8993
  7
高4.5
100
AcDbText
  0
LINE
  5
538
330
6B
100
AcDbEntity
  8
0
 62
     3
100
AcDbLine
 10
296.312569
 20
31.15523999999999
 30
0.0
 11
295.824642
 21
31.15523999999999
 31
0.0
  0
TEXT
  5
9A4
330
6B
100
AcDbEntity
  8
0
  6
Continuous
100
AcDbText
 10
415.8300759999998
 20
155.7498509999999
 30
0.0
 40
2.5
  1
12.12.17
  7
高2.5
100
AcDbText
  0
TEXT
  5
9A5
330
6B
100
AcDbEntity
  8
0
  6
Continuous
100
AcDbText
 10
433.4354019999998
 20
155.7498509999999
 30
0.0
 40
2.5
  1
形状および仕様変更
  7
高2.5
100
AcDbText
  0
TEXT
  5
9A6
330
6B
100
AcDbEntity
  8
0
  6
Continuous
100
AcDbText
 10
477.7271169999998
 20
155.749851
 30
0.0
 40
2.5
  1
今村
  7
高2.5
100
AcDbText
  0
TEXT
  5
DAD
330
6B
100
AcDbEntity
  8
0
  6
Continuous
100
AcDbText
 10
415.8300759999998
 20
150.7998509999999
 30
0.0
 40
2.5
  1
13.02.21
  7
高2.5
100
AcDbText
  0
TEXT
  5
DAE
330
6B
100
AcDbEntity
  8
0
  6
Continuous
100
AcDbText
 10
433.4354019999998
 20
150.7998509999999
 30
0.0
 40
2.5
  1
形状および仕様変更
  7
高2.5
100
AcDbText
  0
TEXT
  5
DAF
330
6B
100
AcDbEntity
  8
0
  6
Continuous
100
AcDbText
 10
477.7271169999998
 20
150.799851
 30
0.0
 40
2.5
  1
今村
  7
高2.5
100
AcDbText
  0
TEXT
  5
1142
330
6B
100
AcDbEntity
  8
0
 62
     3
100
AcDbText
 10
408.3868779892982
 20
146.1854188989684
 30
0.0
 40
2.0
  1
3
  7
高2
100
AcDbText
  0
LINE
  5
1143
330
6B
100
AcDbEntity
  8
0
 62
     7
100
AcDbLine
 10
487.8246419999999
 20
145.349851
 30
0.0
 11
404.224642
 21
145.3498509999999
 31
0.0
  0
LINE
  5
1144
330
6B
100
AcDbEntity
  8
0
 62
     7
100
AcDbLine
 10
409.042347
 20
149.3543949999999
 30
0.0
 11
407.142347
 21
146.0634989999999
 31
0.0
  0
LINE
  5
1145
330
6B
100
AcDbEntity
  8
0
 62
     7
100
AcDbLine
 10
409.042347
 20
149.3543949999999
 30
0.0
 11
410.942347
 21
146.0634989999999
 31
0.0
  0
LINE
  5
1146
330
6B
100
AcDbEntity
  8
0
 62
     7
100
AcDbLine
 10
407.142347
 20
146.0634989999999
 30
0.0
 11
410.942347
 21
146.0634989999999
 31
0.0
  0
TEXT
  5
1147
330
6B
100
AcDbEntity
  8
0
  6
Continuous
100
AcDbText
 10
415.8300759999998
 20
145.8498509999999
 30
0.0
 40
2.5
  1
13.03.27
  7
高2.5
100
AcDbText
  0
TEXT
  5
1148
330
6B
100
AcDbEntity
  8
0
  6
Continuous
100
AcDbText
 10
433.4354019999998
 20
145.8498509999999
 30
0.0
 40
2.5
  1
形状および仕様変更
  7
高2.5
100
AcDbText
  0
TEXT
  5
1149
330
6B
100
AcDbEntity
  8
0
  6
Continuous
100
AcDbText
 10
477.7271169999998
 20
145.849851
 30
0.0
 40
2.5
  1
今村
  7
高2.5
100
AcDbText
  0
TEXT
  5
1517
330
6B
100
AcDbEntity
  8
0
 62
     3
100
AcDbText
 10
408.3868779892982
 20
141.2354188989684
 30
0.0
 40
2.0
  1
4
  7
高2
100
AcDbText
  0
LINE
  5
1518
330
6B
100
AcDbEntity
  8
0
 62
     7
100
AcDbLine
 10
487.8246419999999
 20
140.399851
 30
0.0
 11
404.224642
 21
140.3998509999999
 31
0.0
  0
LINE
  5
1519
330
6B
100
AcDbEntity
  8
0
 62
     7
100
AcDbLine
 10
409.042347
 20
144.4043949999999
 30
0.0
 11
407.142347
 21
141.1134989999999
 31
0.0
  0
LINE
  5
151A
330
6B
100
AcDbEntity
  8
0
 62
     7
100
AcDbLine
 10
409.042347
 20
144.4043949999999
 30
0.0
 11
410.942347
 21
141.1134989999999
 31
0.0
  0
LINE
  5
151B
330
6B
100
AcDbEntity
  8
0
 62
     7
100
AcDbLine
 10
407.142347
 20
141.1134989999999
 30
0.0
 11
410.942347
 21
141.1134989999999
 31
0.0
  0
TEXT
  5
151C
330
6B
100
AcDbEntity
  8
0
  6
Continuous
100
AcDbText
 10
415.8300759999998
 20
140.8998509999999
 30
0.0
 40
2.5
  1
14.11.26
  7
高2.5
100
AcDbText
  0
TEXT
  5
151D
330
6B
100
AcDbEntity
  8
0
  6
Continuous
100
AcDbText
 10
433.4354019999998
 20
140.8998509999999
 30
0.0
 40
2.5
  1
形状および仕様変更
  7
高2.5
100
AcDbText
  0
TEXT
  5
151E
330
6B
100
AcDbEntity
  8
0
  6
Continuous
100
AcDbText
 10
477.7271169999998
 20
140.899851
 30
0.0
 40
2.5
  1
今村
  7
高2.5
100
AcDbText
  0
LINE
  5
1641
330
6B
100
AcDbEntity
  8
0
 62
     7
100
AcDbLine
 10
407.6281122633834
 20
3.440892845315488
 30
0.0
 11
471.6410383005928
 21
3.440892845315488
 31
0.0
  0
LINE
  5
1642
330
6B
100
AcDbEntity
  8
0
 62
     7
100
AcDbLine
 10
407.6281122633837
 20
8.940892845315488
 30
0.0
 11
471.6410383005928
 21
8.940892845315488
 31
0.0
  0
LINE
  5
1643
330
6B
100
AcDbEntity
  8
0
 62
     7
100
AcDbLine
 10
418.0191027330521
 20
14.44089284531549
 30
0.0
 11
471.6410383005928
 21
14.44089284531549
 31
0.0
  0
LINE
  5
1644
330
6B
100
AcDbEntity
  8
0
 62
     7
100
AcDbLine
 10
418.0191027330521
 20
19.94089284531549
 30
0.0
 11
471.6410383005928
 21
19.94089284531549
 31
0.0
  0
LINE
  5
1645
330
6B
100
AcDbEntity
  8
0
 62
     7
100
AcDbLine
 10
418.0191027330521
 20
25.44089284531549
 30
0.0
 11
471.6410383005928
 21
25.44089284531549
 31
0.0
  0
LINE
  5
1646
330
6B
100
AcDbEntity
  8
0
 62
     7
100
AcDbLine
 10
418.0191027330521
 20
30.94089284531549
 30
0.0
 11
471.6410383005928
 21
30.94089284531549
 31
0.0
  0
LINE
  5
1647
330
6B
100
AcDbEntity
  8
0
 62
     7
100
AcDbLine
 10
407.6281122633837
 20
36.4408928453155
 30
0.0
 11
471.6410383005928
 21
36.4408928453155
 31
0.0
  0
LINE
  5
1648
330
6B
100
AcDbEntity
  8
0
 62
     7
100
AcDbLine
 10
407.6281122633837
 20
41.94089284531549
 30
0.0
 11
471.6410383005928
 21
41.94089284531549
 31
0.0
  0
LINE
  5
1649
330
6B
100
AcDbEntity
  8
0
 62
     7
100
AcDbLine
 10
407.6281122633837
 20
47.4408928453155
 30
0.0
 11
471.6410383005928
 21
47.4408928453155
 31
0.0
  0
LINE
  5
164A
330
6B
100
AcDbEntity
  8
0
 62
     7
100
AcDbLine
 10
407.6281122633837
 20
52.94089284531549
 30
0.0
 11
471.6410383005928
 21
52.94089284531549
 31
0.0
  0
LINE
  5
164B
330
6B
100
AcDbEntity
  8
0
 62
     7
100
AcDbLine
 10
407.6281122633837
 20
58.44089284531547
 30
0.0
 11
471.6410383005928
 21
58.44089284531547
 31
0.0
  0
LINE
  5
164C
330
6B
100
AcDbEntity
  8
0
 62
     7
100
AcDbLine
 10
407.6281122633837
 20
63.94089284531549
 30
0.0
 11
471.6410383005928
 21
63.94089284531549
 31
0.0
  0
TEXT
  5
164D
330
6B
100
AcDbEntity
  8
0
 62
     3
100
AcDbText
 10
434.0562078361471
 20
-6.559107154684509
 30
0.0
 40
3.2
  1
124g
  7
高3.2
100
AcDbText
  0
TEXT
  5
164E
330
6B
100
AcDbEntity
  8
0
 62
     3
100
AcDbText
 10
409.1281122633835
 20
-6.559107154684509
 30
0.0
 40
3.2
  1
質　　　量
  7
高3.2
100
AcDbText
  0
TEXT
  5
164F
330
6B
100
AcDbEntity
  8
0
 62
     3
100
AcDbText
 10
409.1281122633835
 20
4.440892845315488
 30
0.0
 40
3.2
  1
球　寿　命
  7
高3.2
100
AcDbText
  0
TEXT
  5
1650
330
6B
100
AcDbEntity
  8
0
 62
     3
100
AcDbText
 10
409.1281122633835
 20
37.4408928453155
 30
0.0
 40
3.2
  1
定格消費電力
  7
高3.2
100
AcDbText
  0
TEXT
  5
1651
330
6B
100
AcDbEntity
  8
0
 62
     3
100
AcDbText
 10
409.1281122633835
 20
42.94089284531549
 30
0.0
 40
3.2
  1
定格　電流
  7
高3.2
100
AcDbText
  0
TEXT
  5
1652
330
6B
100
AcDbEntity
  8
0
 62
     3
100
AcDbText
 10
409.1281122633835
 20
48.44089284531547
 30
0.0
 40
3.2
  1
入力電圧範囲
 41
0.9
  7
高3.2
100
AcDbText
  0
TEXT
  5
1653
330
6B
100
AcDbEntity
  8
0
 62
     3
100
AcDbText
 10
409.1281122633835
 20
53.94089284531549
 30
0.0
 40
3.2
  1
周　波　数
  7
高3.2
100
AcDbText
  0
TEXT
  5
1654
330
6B
100
AcDbEntity
  8
0
 62
     3
100
AcDbText
 10
409.1281122633835
 20
59.4408928453155
 30
0.0
 40
3.2
  1
定格　電圧
  7
高3.2
100
AcDbText
  0
TEXT
  5
1655
330
6B
100
AcDbEntity
  8
0
 62
     3
100
AcDbText
 10
409.1281122633835
 20
64.94089284531549
 30
0.0
 40
3.2
  1
色　温　度
  7
高3.2
100
AcDbText
  0
TEXT
  5
1656
330
6B
100
AcDbEntity
  8
0
 62
     3
100
AcDbText
 10
409.1281122633835
 20
70.44089284531549
 30
0.0
 40
3.2
  1
定格　光束
  7
高3.2
100
AcDbText
  0
TEXT
  5
1657
330
6B
100
AcDbEntity
  8
0
 62
     3
100
AcDbText
 10
409.1281122633835
 20
31.94089284531549
 30
0.0
 40
3.2
  1
照度
  7
高3.2
100
AcDbText
  0
LINE
  5
1658
330
6B
100
AcDbEntity
  8
0
 62
     7
100
AcDbLine
 10
407.6281122633837
 20
69.44089284531549
 30
0.0
 11
471.6410383005928
 21
69.44089284531549
 31
0.0
  0
LINE
  5
1659
330
6B
100
AcDbEntity
  8
0
 62
     7
100
AcDbLine
 10
407.6281122633837
 20
74.9408928453155
 30
0.0
 11
471.6410383005928
 21
74.9408928453155
 31
0.0
  0
LINE
  5
165A
330
6B
100
AcDbEntity
  8
0
 62
     7
100
AcDbLine
 10
407.628112263383
 20
80.44089284531549
 30
0.0
 11
471.6410383005923
 21
80.44089284531549
 31
0.0
  0
LINE
  5
165B
330
6B
100
AcDbEntity
  8
0
100
AcDbLine
 10
418.0191027330521
 20
36.4408928453155
 30
0.0
 11
418.0191027330521
 21
8.940892845315488
 31
0.0
  0
TEXT
  5
165C
330
6B
100
AcDbEntity
  8
0
 62
     3
100
AcDbText
 10
419.5191027330519
 20
31.94089284531549
 30
0.0
 40
3.2
  1
1m
  7
高3.2
100
AcDbText
  0
TEXT
  5
165D
330
6B
100
AcDbEntity
  8
0
 62
     3
100
AcDbText
 10
419.5191027330519
 20
26.44089284531549
 30
0.0
 40
3.2
  1
2m
  7
高3.2
100
AcDbText
  0
TEXT
  5
165E
330
6B
100
AcDbEntity
  8
0
 62
     3
100
AcDbText
 10
419.5191027330519
 20
20.94089284531549
 30
0.0
 40
3.2
  1
3m
  7
高3.2
100
AcDbText
  0
TEXT
  5
165F
330
6B
100
AcDbEntity
  8
0
 62
     3
100
AcDbText
 10
419.5191027330519
 20
15.44089284531549
 30
0.0
 40
3.2
  1
4m
  7
高3.2
100
AcDbText
  0
TEXT
  5
1660
330
6B
100
AcDbEntity
  8
0
 62
     3
100
AcDbText
 10
419.5191027330519
 20
9.940892845315488
 30
0.0
 40
3.2
  1
5m
  7
高3.2
100
AcDbText
  0
LINE
  5
1661
330
6B
100
AcDbEntity
  8
0
 62
     3
100
AcDbLine
 10
407.6281122633834
 20
-7.559107154684509
 30
0.0
 11
471.6410383005928
 21
-7.559107154684509
 31
0.0
  0
TEXT
  5
1662
330
6B
100
AcDbEntity
  8
0
 62
     3
100
AcDbText
 10
434.0562078361473
 20
70.44089284531549
 30
0.0
 40
3.2
  1
1800Lm
  7
高3.2
100
AcDbText
  0
TEXT
  5
1663
330
6B
100
AcDbEntity
  8
0
 62
     3
100
AcDbText
 10
434.0562078361473
 20
64.94089284531549
 30
0.0
 40
3.2
  1
6500K
  7
高3.2
100
AcDbText
  0
TEXT
  5
1664
330
6B
100
AcDbEntity
  8
0
 62
     3
100
AcDbText
 10
434.0562078361473
 20
59.4408928453155
 30
0.0
 40
3.2
  1
AC100V
  7
高3.2
100
AcDbText
  0
TEXT
  5
1665
330
6B
100
AcDbEntity
  8
0
 62
     3
100
AcDbText
 10
434.0562078361473
 20
53.94089284531549
 30
0.0
 40
3.2
  1
50/60Hz
  7
高3.2
100
AcDbText
  0
TEXT
  5
1666
330
6B
100
AcDbEntity
  8
0
 62
     3
100
AcDbText
 10
434.0562078361473
 20
48.44089284531547
 30
0.0
 40
3.2
  1
AC90～110V
  7
高3.2
100
AcDbText
  0
TEXT
  5
1667
330
6B
100
AcDbEntity
  8
0
 62
     3
100
AcDbText
 10
434.0562078361473
 20
42.94089284531549
 30
0.0
 40
3.2
  1
0.54A
  7
高3.2
100
AcDbText
  0
TEXT
  5
1668
330
6B
100
AcDbEntity
  8
0
 62
     3
100
AcDbText
 10
434.0562078361473
 20
37.4408928453155
 30
0.0
 40
3.2
  1
31W
  7
高3.2
100
AcDbText
  0
TEXT
  5
1669
330
6B
100
AcDbEntity
  8
0
 62
     3
100
AcDbText
 10
434.0562078361473
 20
31.94089284531549
 30
0.0
 40
3.2
  1
上:117／横:160Lx
  7
高3.2
100
AcDbText
  0
TEXT
  5
166A
330
6B
100
AcDbEntity
  8
0
 62
     3
100
AcDbText
 10
434.0562078361473
 20
26.44089284531549
 30
0.0
 40
3.2
  1
上:32／横:43Lx
  7
高3.2
100
AcDbText
  0
TEXT
  5
166B
330
6B
100
AcDbEntity
  8
0
 62
     3
100
AcDbText
 10
434.0562078361473
 20
20.94089284531549
 30
0.0
 40
3.2
  1
上:16／横:20Lx
  7
高3.2
100
AcDbText
  0
TEXT
  5
166C
330
6B
100
AcDbEntity
  8
0
 62
     3
100
AcDbText
 10
434.0562078361473
 20
15.44089284531549
 30
0.0
 40
3.2
  1
上:9／横:13Lx
  7
高3.2
100
AcDbText
  0
TEXT
  5
166D
330
6B
100
AcDbEntity
  8
0
 62
     3
100
AcDbText
 10
434.0562078361473
 20
9.940892845315488
 30
0.0
 40
3.2
  1
上:6／横:8Lx
  7
高3.2
100
AcDbText
  0
TEXT
  5
166E
330
6B
100
AcDbEntity
  8
0
 62
     3
100
AcDbText
 10
434.0562078361473
 20
4.440892845315488
 30
0.0
 40
3.2
  1
約8000H
  7
高3.2
100
AcDbText
  0
LINE
  5
166F
330
6B
100
AcDbEntity
  8
0
 62
     3
100
AcDbLine
 10
407.628112263383
 20
85.94089284531547
 30
0.0
 11
407.6281122633834
 21
-7.559107154684509
 31
0.0
  0
LINE
  5
1670
330
6B
100
AcDbEntity
  8
0
 62
     7
100
AcDbLine
 10
432.5562078361471
 20
-7.559107154684509
 30
0.0
 11
432.5562078361468
 21
85.94089284531547
 31
0.0
  0
LINE
  5
1671
330
6B
100
AcDbEntity
  8
0
 62
     3
100
AcDbLine
 10
471.6410383005928
 20
-7.559107154684509
 30
0.0
 11
471.6410383005928
 21
85.94089284531547
 31
0.0
  0
TEXT
  5
1672
330
6B
100
AcDbEntity
  8
0
 62
     3
100
AcDbText
 10
420.503334578183
 20
90.67470472234536
 30
0.0
 40
4.5
  1
主　　仕　　様
  7
高4.5
100
AcDbText
  0
LINE
  5
1673
330
6B
100
AcDbEntity
  8
0
100
AcDbLine
 10
419.4024202104276
 20
89.80895163850265
 30
0.0
 11
457.9946404901148
 21
89.80895163850265
 31
0.0
  0
TEXT
  5
1674
330
6B
100
AcDbEntity
  8
0
 62
     7
100
AcDbText
 10
406.4982019273056
 20
-11.59257072708828
 30
0.0
 40
2.0
  1
注１）照度は当社実測値の為、使用環境下により異なります。
  7
高2
100
AcDbText
  0
TEXT
  5
1675
330
6B
100
AcDbEntity
  8
0
 62
     7
100
AcDbText
 10
406.4982019273056
 20
-14.59257072708828
 30
0.0
 40
2.0
  1
注２）球寿命は光束が70%%%に低下するまでの時間です。
  7
高2
100
AcDbText
  0
TEXT
  5
1676
330
6B
100
AcDbEntity
  8
0
 62
     7
100
AcDbText
 10
406.4982019273056
 20
-17.59257072708828
 30
0.0
 40
2.0
  1
　　　表示は設計値であり、製品の寿命を保証するものではありません。
  7
高2
100
AcDbText
  0
TEXT
  5
1677
330
6B
100
AcDbEntity
  8
0
 62
     7
100
AcDbText
 10
406.4982019273056
 20
-20.59257072708828
 30
0.0
 40
2.0
  1
注３）安全にご使用いただくため、パッケージをご参照ください。
  7
高2
100
AcDbText
  0
TEXT
  5
1678
330
6B
100
AcDbEntity
  8
0
 62
     3
100
AcDbText
 10
409.1281122633833
 20
81.44089284531551
 30
0.0
 40
3.2
  1
型　　　式
  7
高3.2
100
AcDbText
  0
LINE
  5
1679
330
6B
100
AcDbEntity
  8
0
 62
     3
100
AcDbLine
 10
407.628112263383
 20
85.94089284531547
 30
0.0
 11
471.6410383005923
 21
85.94089284531547
 31
0.0
  0
TEXT
  5
167A
330
6B
100
AcDbEntity
  8
0
 62
     3
100
AcDbText
 10
434.056207836147
 20
81.44089284531551
 30
0.0
 40
3.2
  1
F32W-T
  7
高3.2
100
AcDbText
  0
TEXT
  5
167B
330
6B
100
AcDbEntity
  8
0
 62
     7
100
AcDbText
 10
406.4982019273056
 20
-23.59257072708828
 30
0.0
 40
2.0
  1
注４）仕様変更は予告なく行う場合があります。予めご了承ください。
  7
高2
100
AcDbText
  0
TEXT
  5
167C
330
6B
100
AcDbEntity
  8
0
 62
     3
100
AcDbText
 10
409.1281122633833
 20
75.9408928453155
 30
0.0
 40
3.2
  1
口金サイズ
  7
高3.2
100
AcDbText
  0
TEXT
  5
167D
330
6B
100
AcDbEntity
  8
0
 62
     3
100
AcDbText
 10
434.056207836147
 20
75.9408928453155
 30
0.0
 40
3.2
  1
E26
  7
高3.2
100
AcDbText
  0
TEXT
  5
17DD
330
6B
100
AcDbEntity
  8
0
 62
     3
100
AcDbText
 10
408.3868779892982
 20
136.2854188989684
 30
0.0
 40
2.0
  1
5
  7
高2
100
AcDbText
  0
LINE
  5
17DE
330
6B
100
AcDbEntity
  8
0
 62
     7
100
AcDbLine
 10
487.8246419999999
 20
135.449851
 30
0.0
 11
404.224642
 21
135.4498509999999
 31
0.0
  0
LINE
  5
17DF
330
6B
100
AcDbEntity
  8
0
 62
     7
100
AcDbLine
 10
409.042347
 20
139.4543949999999
 30
0.0
 11
407.142347
 21
136.1634989999999
 31
0.0
  0
LINE
  5
17E0
330
6B
100
AcDbEntity
  8
0
 62
     7
100
AcDbLine
 10
409.042347
 20
139.4543949999999
 30
0.0
 11
410.942347
 21
136.1634989999999
 31
0.0
  0
LINE
  5
17E1
330
6B
100
AcDbEntity
  8
0
 62
     7
100
AcDbLine
 10
407.142347
 20
136.1634989999999
 30
0.0
 11
410.942347
 21
136.1634989999999
 31
0.0
  0
TEXT
  5
17E2
330
6B
100
AcDbEntity
  8
0
  6
Continuous
100
AcDbText
 10
415.8300759999998
 20
135.9498509999998
 30
0.0
 40
2.5
  1
15.02.16
  7
高2.5
100
AcDbText
  0
TEXT
  5
17E3
330
6B
100
AcDbEntity
  8
0
  6
Continuous
100
AcDbText
 10
433.4354019999998
 20
135.9498509999998
 30
0.0
 40
2.5
  1
形状および仕様変更
  7
高2.5
100
AcDbText
  0
TEXT
  5
17E4
330
6B
100
AcDbEntity
  8
0
  6
Continuous
100
AcDbText
 10
477.7271169999998
 20
135.949851
 30
0.0
 40
2.5
  1
今村
  7
高2.5
100
AcDbText
  0
LINE
  5
19D6
330
6B
100
AcDbEntity
  8
0
100
AcDbLine
 10
371.7058827729429
 20
-40.63541839774351
 30
0.0
 11
373.7058827729429
 21
-36.84303600000003
 31
0.0
  0
ARC
  5
19D7
330
6B
100
AcDbEntity
  8
0
100
AcDbCircle
 10
377.8961815840298
 20
-33.35006473363913
 30
0.0
 40
1.309701188913185
100
AcDbArc
 50
270.0
 51
97.46279400000373
  0
ARC
  5
19D8
330
6B
100
AcDbEntity
  8
0
100
AcDbCircle
 10
377.8961815840298
 20
-28.11125864403133
 30
0.0
 40
1.309701188913185
100
AcDbArc
 50
270.0
 51
97.46279400000373
  0
ARC
  5
19D9
330
6B
100
AcDbEntity
  8
0
100
AcDbCircle
 10
379.8607333673997
 20
-30.73066102185766
 30
0.0
 40
1.964551783369778
100
AcDbArc
 50
126.8698979999915
 51
233.1301020000085
  0
ARC
  5
19DA
330
6B
100
AcDbEntity
  8
0
100
AcDbCircle
 10
379.8607333673997
 20
-25.49185626620491
 30
0.0
 40
1.964551783369778
100
AcDbArc
 50
126.8698979999915
 51
233.1301020000085
  0
ARC
  5
19DB
330
6B
100
AcDbEntity
  8
0
100
AcDbCircle
 10
377.8961815840298
 20
-22.87245388837852
 30
0.0
 40
1.309701188913185
100
AcDbArc
 50
270.0
 51
96.41232656605495
  0
LINE
  5
19DC
330
6B
100
AcDbEntity
  8
0
100
AcDbLine
 10
360.7058827729429
 20
-40.63541839774351
 30
0.0
 11
358.7058827729429
 21
-36.84303600000003
 31
0.0
  0
ARC
  5
19DD
330
6B
100
AcDbEntity
  8
0
100
AcDbCircle
 10
354.5155852958114
 20
-29.42095983294442
 30
0.0
 40
1.309701188913185
100
AcDbArc
 50
90.0
 51
277.4627940000037
  0
ARC
  5
19DE
330
6B
100
AcDbEntity
  8
0
100
AcDbCircle
 10
354.5155852958114
 20
-34.65976592255234
 30
0.0
 40
1.309701188913185
100
AcDbArc
 50
90.0
 51
290.8564800000042
  0
ARC
  5
19DF
330
6B
100
AcDbEntity
  8
0
100
AcDbCircle
 10
352.5510321784866
 20
-32.04036354472592
 30
0.0
 40
1.964551783369778
100
AcDbArc
 50
306.8698979999915
 51
53.13010200000849
  0
ARC
  5
19E0
330
6B
100
AcDbEntity
  8
0
100
AcDbCircle
 10
352.5510321784866
 20
-26.80155745511815
 30
0.0
 40
1.964551783369778
100
AcDbArc
 50
306.8698979999915
 51
53.13010200000849
  0
ARC
  5
19E1
330
6B
100
AcDbEntity
  8
0
100
AcDbCircle
 10
354.5155852958114
 20
-24.18215507729184
 30
0.0
 40
1.309701188913185
100
AcDbArc
 50
90.0
 51
277.4627940000037
  0
LINE
  5
19E2
330
6B
100
AcDbEntity
  8
0
100
AcDbLine
 10
374.8961815840298
 20
-36.84303600000003
 30
0.0
 11
357.5155852958117
 21
-36.84303600000003
 31
0.0
  0
ARC
  5
19E3
330
6B
100
AcDbEntity
  8
0
100
AcDbCircle
 10
366.2058827729429
 20
-28.7145670980764
 30
0.0
 40
13.1284689019236
100
AcDbArc
 50
245.2325125815905
 51
294.7674874184095
  0
LINE
  5
19E4
330
6B
100
AcDbEntity
  8
0
100
AcDbLine
 10
371.7058827729431
 20
-40.63541839774339
 30
0.0
 11
360.7058827729429
 21
-40.63541839774351
 31
0.0
  0
LINE
  5
19E5
330
6B
100
AcDbEntity
  8
0
100
AcDbLine
 10
354.2050405341765
 20
-35.93211770089411
 30
0.0
 11
377.8961815840298
 21
-34.65976592255234
 31
0.0
  0
LINE
  5
19E6
330
6B
100
AcDbEntity
  8
0
100
AcDbLine
 10
354.5155852958114
 20
-33.35006473363913
 30
0.0
 11
377.8961815840298
 21
-32.04036354472592
 31
0.0
  0
LINE
  5
19E7
330
6B
100
AcDbEntity
  8
0
100
AcDbLine
 10
354.5155852958114
 20
-30.73066102185766
 30
0.0
 11
377.8961815840298
 21
-29.42095983294442
 31
0.0
  0
LINE
  5
19E8
330
6B
100
AcDbEntity
  8
0
100
AcDbLine
 10
354.5155852958114
 20
-28.11125864403133
 30
0.0
 11
377.8961815840298
 21
-26.80155745511815
 31
0.0
  0
LINE
  5
19E9
330
6B
100
AcDbEntity
  8
0
100
AcDbLine
 10
354.5155852958114
 20
-25.49185626620491
 30
0.0
 11
377.8961815840298
 21
-24.18215507729184
 31
0.0
  0
LINE
  5
19EA
330
6B
100
AcDbEntity
  8
0
100
AcDbLine
 10
353.7058827729429
 20
-19.97276716077705
 30
0.0
 11
353.7058827729429
 21
-16.343036
 31
0.0
  0
LINE
  5
19EB
330
6B
100
AcDbEntity
  8
0
100
AcDbLine
 10
378.7058827729693
 20
-18.66306702108333
 30
0.0
 11
378.7058827729693
 21
-16.343036
 31
0.0
  0
LINE
  5
19EC
330
6B
100
AcDbEntity
  8
0
100
AcDbLine
 10
354.5155852958114
 20
-22.87245388837872
 30
0.0
 11
377.7499105823563
 21
-21.57094630164891
 31
0.0
  0
ARC
  5
19ED
330
6B
100
AcDbEntity
  8
0
100
AcDbCircle
 10
374.8961815840298
 20
-33.84303600000013
 30
0.0
 40
3.0
100
AcDbArc
 50
270.0
 51
344.0795009769849
  0
ARC
  5
19EE
330
6B
100
AcDbEntity
  8
0
100
AcDbCircle
 10
357.5155852958117
 20
-33.84303600000001
 30
0.0
 40
3.0
100
AcDbArc
 50
222.5816166691525
 51
270.0
  0
ARC
  5
19EF
330
6B
100
AcDbEntity
  8
0
100
AcDbCircle
 10
379.8607333673997
 20
-20.2530515105521
 30
0.0
 40
1.964551783369778
100
AcDbArc
 50
126.8698979999915
 51
233.1301020000085
  0
ARC
  5
19F0
330
6B
100
AcDbEntity
  8
0
100
AcDbCircle
 10
352.5510321784866
 20
-21.56275269946557
 30
0.0
 40
1.964551783369778
100
AcDbArc
 50
306.8698979999915
 51
53.13010200000849
  0
LINE
  5
19F1
330
6B
100
AcDbEntity
  8
0
100
AcDbLine
 10
354.5155852958114
 20
-20.25305151055233
 30
0.0
 11
377.8961815840298
 21
-18.94335032163926
 31
0.0
  0
ARC
  5
19F2
330
6B
100
AcDbEntity
  8
0
100
AcDbCircle
 10
377.8961815840298
 20
-17.63364913272571
 30
0.0
 40
1.309701188913185
100
AcDbArc
 50
270.0
 51
308.1872518973338
  0
ARC
  5
19F3
330
6B
100
AcDbEntity
  8
0
100
AcDbCircle
 10
354.5155852958114
 20
-18.94335032163903
 30
0.0
 40
1.309701188913185
100
AcDbArc
 50
231.8126738582321
 51
277.4627940000037
  0
LINE
  5
19FA
330
6B
100
AcDbEntity
  8
0
  6
CENTER
 62
     7
100
AcDbLine
 10
366.2058827729429
 20
142.8173984186899
 30
0.0
 11
366.2058827729429
 21
-44.73305900998457
 31
0.0
  0
LINE
  5
1A8D
330
6B
100
AcDbEntity
  8
0
 62
     3
100
AcDbLine
 10
341.405882772943
 20
33.656964
 30
0.0
 11
391.0058827729429
 21
33.656964
 31
0.0
  0
LINE
  5
1A8E
330
6B
100
AcDbEntity
  8
0
 62
     3
100
AcDbLine
 10
380.1058827729429
 20
-16.343036
 30
0.0
 11
352.3058827729429
 21
-16.343036
 31
0.0
  0
LINE
  5
1A8F
330
6B
100
AcDbEntity
  8
0
 62
     3
100
AcDbLine
 10
380.105882772943
 20
-13.843036
 30
0.0
 11
380.1058827729429
 21
-16.34303599999998
 31
0.0
  0
LINE
  5
1A90
330
6B
100
AcDbEntity
  8
0
 62
     3
100
AcDbLine
 10
352.3058827729429
 20
-13.843036
 30
0.0
 11
352.3058827729429
 21
-16.34303599999998
 31
0.0
  0
LINE
  5
1A91
330
6B
100
AcDbEntity
  8
0
 62
     3
100
AcDbLine
 10
381.4558827729429
 20
-13.843036
 30
0.0
 11
350.9558827729429
 21
-13.843036
 31
0.0
  0
LINE
  5
1A92
330
6B
100
AcDbEntity
  8
0
 62
     3
100
AcDbLine
 10
391.0058827729429
 20
33.656964
 30
0.0
 11
391.005882772943
 21
31.65696400000001
 31
0.0
  0
LINE
  5
1A93
330
6B
100
AcDbEntity
  8
0
 62
     3
100
AcDbLine
 10
341.405882772943
 20
33.65696400000002
 30
0.0
 11
341.4058827729431
 21
31.65696400000001
 31
0.0
  0
LINE
  5
1A94
330
6B
100
AcDbEntity
  8
0
 62
     3
100
AcDbLine
 10
392.7058827729429
 20
31.656964
 30
0.0
 11
376.7058827729428
 21
31.656964
 31
0.0
  0
LINE
  5
1A97
330
6B
100
AcDbEntity
  8
0
 62
     3
100
AcDbLine
 10
395.2058827729429
 20
30.156964
 30
0.0
 11
395.2058827729428
 21
25.156964
 31
0.0
  0
LINE
  5
1A98
330
6B
100
AcDbEntity
  8
0
 62
     3
100
AcDbLine
 10
337.2058827729429
 20
30.156964
 30
0.0
 11
337.2058827729429
 21
25.156964
 31
0.0
  0
LINE
  5
1A99
330
6B
100
AcDbEntity
  8
0
 62
     3
100
AcDbLine
 10
337.2058827729429
 20
25.156964
 30
0.0
 11
395.2058827729429
 21
25.156964
 31
0.0
  0
LINE
  5
1A9A
330
6B
100
AcDbEntity
  8
0
 62
     3
100
AcDbLine
 10
374.2058827729429
 20
29.156964
 30
0.0
 11
358.2058827729429
 21
29.156964
 31
0.0
  0
LINE
  5
1A9B
330
6B
100
AcDbEntity
  8
0
 62
     7
100
AcDbLine
 10
395.2058827729429
 20
30.156964
 30
0.0
 11
376.2058827729428
 21
30.156964
 31
0.0
  0
LINE
  5
1AA0
330
6B
100
AcDbEntity
  8
0
 62
     3
100
AcDbLine
 10
392.7058827729429
 20
31.656964
 30
0.0
 11
395.2058827729429
 21
30.156964
 31
0.0
  0
LINE
  5
1AA1
330
6B
100
AcDbEntity
  8
0
 62
     3
100
AcDbLine
 10
339.7058827729429
 20
31.656964
 30
0.0
 11
337.2058827729429
 21
30.156964
 31
0.0
  0
ARC
  5
1AA4
330
6B
100
AcDbEntity
  8
0
 62
     3
100
AcDbCircle
 10
374.2058827729428
 20
31.65696400000008
 30
0.0
 40
2.5
100
AcDbArc
 50
270.0000000000033
 51
359.9999999999983
  0
ARC
  5
1AA5
330
6B
100
AcDbEntity
  8
0
 62
     3
100
AcDbCircle
 10
358.205882772943
 20
31.65696400000008
 30
0.0
 40
2.5
100
AcDbArc
 50
180.0000000000016
 51
269.9999999999968
  0
LINE
  5
1AA6
330
6B
100
AcDbEntity
  8
0
 62
     7
100
AcDbLine
 10
356.205882772943
 20
30.156964
 30
0.0
 11
337.2058827729429
 21
30.156964
 31
0.0
  0
LINE
  5
1AA7
330
6B
100
AcDbEntity
  8
0
 62
     3
100
AcDbLine
 10
355.705882772943
 20
31.656964
 30
0.0
 11
339.7058827729429
 21
31.656964
 31
0.0
  0
ARC
  5
1AC3
330
6B
100
AcDbEntity
  8
0
 62
     3
100
AcDbCircle
 10
391.4558827729429
 20
-13.843036
 30
0.0
 40
10.0
100
AcDbArc
 50
119.1305143967747
 51
180.0
  0
ARC
  5
1AC4
330
6B
100
AcDbEntity
  8
0
 62
     3
100
AcDbCircle
 10
340.9558827729429
 20
-13.843036
 30
0.0
 40
10.0
100
AcDbArc
 50
0.0
 51
60.86948560322536
  0
LINE
  5
1AC7
330
6B
100
AcDbEntity
  8
0
 62
     3
100
AcDbLine
 10
395.2058827729428
 20
25.156964
 30
0.0
 11
394.2653092404894
 21
7.209751862396955
 31
0.0
  0
LINE
  5
1AC8
330
6B
100
AcDbEntity
  8
0
 62
     3
100
AcDbLine
 10
337.2058827729429
 20
25.156964
 30
0.0
 11
338.1464563053962
 21
7.209751862397167
 31
0.0
  0
ARC
  5
1ACC
330
6B
100
AcDbEntity
  8
0
 62
     3
100
AcDbCircle
 10
379.2858662191707
 20
7.99479120604113
 30
0.0
 40
15.0
100
AcDbArc
 50
299.1305143967748
 51
356.9999999999998
  0
ARC
  5
1ACD
330
6B
100
AcDbEntity
  8
0
 62
     3
100
AcDbCircle
 10
353.1258993267148
 20
7.994791206041267
 30
0.0
 40
15.0
100
AcDbArc
 50
182.9999999999998
 51
240.8694856032254
  0
LINE
  5
1AE9
330
6B
100
AcDbEntity
  8
0
 62
     3
100
AcDbLine
 10
388.1058827729429
 20
36.656964
 30
0.0
 11
388.1058827729429
 21
33.656964
 31
0.0
  0
LINE
  5
1AEA
330
6B
100
AcDbEntity
  8
0
 62
     3
100
AcDbLine
 10
344.305882772943
 20
36.656964
 30
0.0
 11
344.305882772943
 21
33.656964
 31
0.0
  0
LINE
  5
1AEB
330
6B
100
AcDbEntity
  8
0
 62
     3
100
AcDbLine
 10
373.5058827729428
 20
36.656964
 30
0.0
 11
373.5058827729428
 21
33.656964
 31
0.0
  0
LINE
  5
1AEC
330
6B
100
AcDbEntity
  8
0
 62
     3
100
AcDbLine
 10
358.9058827729429
 20
36.656964
 30
0.0
 11
358.9058827729429
 21
33.656964
 31
0.0
  0
LINE
  5
1AF1
330
6B
100
AcDbEntity
  8
0
 62
     3
100
AcDbLine
 10
344.305882772943
 20
36.656964
 30
0.0
 11
358.9058827729429
 21
36.656964
 31
0.0
  0
LINE
  5
1AF2
330
6B
100
AcDbEntity
  8
0
 62
     3
100
AcDbLine
 10
373.5058827729428
 20
36.656964
 30
0.0
 11
388.1058827729429
 21
36.656964
 31
0.0
  0
ARC
  5
1B05
330
6B
100
AcDbEntity
  8
0
 62
     3
100
AcDbCircle
 10
391.7058827729429
 20
126.3504828754167
 30
0.0
 40
6.0
100
AcDbArc
 50
284.5991751525119
 51
104.5991751525118
  0
ARC
  5
1B06
330
6B
100
AcDbEntity
  8
0
 62
     3
100
AcDbCircle
 10
340.7058827729429
 20
126.3504828754167
 30
0.0
 40
6.0
100
AcDbArc
 50
103.9168774332998
 51
283.9168774332998
  0
ARC
  5
1B07
330
6B
100
AcDbEntity
  8
0
 62
     3
100
AcDbCircle
 10
394.4558827729429
 20
112.3504828754167
 30
0.0
 40
6.0
100
AcDbArc
 50
283.9168774332998
 51
103.9168774332998
  0
ARC
  5
1B08
330
6B
100
AcDbEntity
  8
0
 62
     3
100
AcDbCircle
 10
337.9558827729429
 20
112.3504828754167
 30
0.0
 40
6.0
100
AcDbArc
 50
104.5991751525118
 51
284.5991751525119
  0
ARC
  5
1B09
330
6B
100
AcDbEntity
  8
0
 62
     3
100
AcDbCircle
 10
394.4558827729429
 20
98.35048287541678
 30
0.0
 40
6.0
100
AcDbArc
 50
283.9168774332998
 51
103.9168774332998
  0
ARC
  5
1B0A
330
6B
100
AcDbEntity
  8
0
 62
     3
100
AcDbCircle
 10
337.9558827729429
 20
98.35048287541678
 30
0.0
 40
6.0
100
AcDbArc
 50
103.9168774332998
 51
283.9168774332998
  0
ARC
  5
1B0B
330
6B
100
AcDbEntity
  8
0
 62
     3
100
AcDbCircle
 10
394.4558827729429
 20
84.35048287541674
 30
0.0
 40
6.0
100
AcDbArc
 50
283.9168774332998
 51
103.9168774332998
  0
ARC
  5
1B0C
330
6B
100
AcDbEntity
  8
0
 62
     3
100
AcDbCircle
 10
337.9558827729429
 20
84.35048287541674
 30
0.0
 40
6.0
100
AcDbArc
 50
103.9168774332998
 51
283.9168774332998
  0
ARC
  5
1B0D
330
6B
100
AcDbEntity
  8
0
 62
     3
100
AcDbCircle
 10
394.4558827729429
 20
70.35048287541676
 30
0.0
 40
6.0
100
AcDbArc
 50
283.9168774332998
 51
103.9168774332998
  0
ARC
  5
1B0E
330
6B
100
AcDbEntity
  8
0
 62
     3
100
AcDbCircle
 10
337.9558827729429
 20
70.35048287541676
 30
0.0
 40
6.0
100
AcDbArc
 50
103.9168774332998
 51
283.9168774332998
  0
ARC
  5
1B0F
330
6B
100
AcDbEntity
  8
0
 62
     3
100
AcDbCircle
 10
394.4558827729429
 20
56.35048287541676
 30
0.0
 40
6.0
100
AcDbArc
 50
283.9168774332998
 51
103.9168774332998
  0
ARC
  5
1B10
330
6B
100
AcDbEntity
  8
0
 62
     3
100
AcDbCircle
 10
337.9558827729429
 20
56.35048287541676
 30
0.0
 40
6.0
100
AcDbArc
 50
103.9168774332998
 51
283.9168774332998
  0
LINE
  5
1B34
330
6B
100
AcDbEntity
  8
0
 62
     3
100
AcDbLine
 10
379.6746652541972
 20
135.5131218707755
 30
0.0
 11
393.1489666102202
 21
132.1743569329998
 31
0.0
  0
ARC
  5
1B35
330
6B
100
AcDbEntity
  8
0
 62
     3
100
AcDbCircle
 10
366.205882772943
 20
81.15696400000002
 30
0.0
 40
56.0
100
AcDbArc
 50
76.08312256670014
 51
103.9168774332998
  0
LINE
  5
1B36
330
6B
100
AcDbEntity
  8
0
 62
     3
100
AcDbLine
 10
339.2627989356657
 20
132.1743569329998
 30
0.0
 11
352.737100291689
 21
135.5131218707755
 31
0.0
  0
LINE
  5
1B37
330
6B
100
AcDbEntity
  8
0
 62
     3
100
AcDbLine
 10
342.1489666102201
 20
120.5266088178336
 30
0.0
 11
355.6232679662433
 21
123.8653737556093
 31
0.0
  0
ARC
  5
1B38
330
6B
100
AcDbEntity
  8
0
 62
     3
100
AcDbCircle
 10
366.205882772943
 20
81.15696400000002
 30
0.0
 40
44.0
100
AcDbArc
 50
94.41629726716744
 51
103.9168774332998
  0
LINE
  5
1B3A
330
6B
100
AcDbEntity
  8
0
 62
     3
100
AcDbLine
 10
336.4435502122562
 20
118.1567596709103
 30
0.0
 11
390.1935502122563
 21
132.1567596709102
 31
0.0
  0
LINE
  5
1B3B
330
6B
100
AcDbEntity
  8
0
 62
     3
100
AcDbLine
 10
339.4682153336296
 20
106.5442060799232
 30
0.0
 11
393.2182153336296
 21
120.5442060799231
 31
0.0
  0
LINE
  5
1B3C
330
6B
100
AcDbEntity
  8
0
 62
     3
100
AcDbLine
 10
370.0946971461263
 20
112.4955352506361
 30
0.0
 11
366.2058827729428
 21
113.508435738535
 31
0.0
  0
LINE
  5
1B3D
330
6B
100
AcDbEntity
  8
0
 62
     3
100
AcDbLine
 10
395.9682153336296
 20
118.1567596709103
 30
0.0
 11
390.0101708877564
 21
119.7086224103004
 31
0.0
  0
LINE
  5
1B3E
330
6B
100
AcDbEntity
  8
0
 62
     3
100
AcDbLine
 10
342.4015946581292
 20
119.7086224103004
 30
0.0
 11
339.1935502122562
 21
120.5442060799231
 31
0.0
  0
LINE
  5
1B43
330
6B
100
AcDbEntity
  8
0
 62
     3
100
AcDbLine
 10
339.3989666102201
 20
92.52660881783368
 30
0.0
 11
395.8989666102201
 21
106.5266088178336
 31
0.0
  0
LINE
  5
1B44
330
6B
100
AcDbEntity
  8
0
 62
     3
100
AcDbLine
 10
336.5127989356657
 20
104.1743569329998
 30
0.0
 11
393.0127989356657
 21
118.1743569329998
 31
0.0
  0
LINE
  5
1B45
330
6B
100
AcDbEntity
  8
0
 62
     3
100
AcDbLine
 10
362.3170683997595
 20
112.4955352506361
 30
0.0
 11
366.205882772943
 21
111.5319352289622
 31
0.0
  0
LINE
  5
1B46
330
6B
100
AcDbEntity
  8
0
 62
     3
100
AcDbLine
 10
336.5127989356657
 20
106.5266088178336
 30
0.0
 11
341.259307203277
 21
105.3504828754168
 31
0.0
  0
LINE
  5
1B47
330
6B
100
AcDbEntity
  8
0
 62
     3
100
AcDbLine
 10
391.152458342609
 20
105.3504828754167
 30
0.0
 11
395.8989666102201
 21
104.1743569329998
 31
0.0
  0
LINE
  5
1B48
330
6B
100
AcDbEntity
  8
0
 62
     3
100
AcDbLine
 10
366.205882772943
 20
99.16903052187121
 30
0.0
 11
369.509307203277
 21
98.35048287541678
 31
0.0
  0
LINE
  5
1B76
330
6B
100
AcDbEntity
  8
0
 62
     3
100
AcDbLine
 10
336.5127989356657
 20
90.17435693299985
 30
0.0
 11
393.0127989356657
 21
104.1743569329998
 31
0.0
  0
LINE
  5
1B77
330
6B
100
AcDbEntity
  8
0
 62
     3
100
AcDbLine
 10
339.3989666102201
 20
78.52660881783369
 30
0.0
 11
395.8989666102201
 21
92.52660881783368
 31
0.0
  0
LINE
  5
1B78
330
6B
100
AcDbEntity
  8
0
 62
     3
100
AcDbLine
 10
362.9024583426089
 20
98.35048287541674
 30
0.0
 11
366.205882772943
 21
97.53193522896232
 31
0.0
  0
LINE
  5
1B79
330
6B
100
AcDbEntity
  8
0
 62
     3
100
AcDbLine
 10
336.5127989356657
 20
92.52660881783368
 30
0.0
 11
341.259307203277
 21
91.35048287541676
 31
0.0
  0
LINE
  5
1B7A
330
6B
100
AcDbEntity
  8
0
 62
     3
100
AcDbLine
 10
366.205882772943
 20
85.16903052187121
 30
0.0
 11
369.509307203277
 21
84.35048287541679
 31
0.0
  0
LINE
  5
1B7B
330
6B
100
AcDbEntity
  8
0
 62
     3
100
AcDbLine
 10
391.152458342609
 20
91.35048287541676
 30
0.0
 11
395.8989666102201
 21
90.17435693299985
 31
0.0
  0
LINE
  5
1B80
330
6B
100
AcDbEntity
  8
0
 62
     3
100
AcDbLine
 10
336.5127989356657
 20
76.17435693299984
 30
0.0
 11
393.0127989356657
 21
90.17435693299985
 31
0.0
  0
LINE
  5
1B81
330
6B
100
AcDbEntity
  8
0
 62
     3
100
AcDbLine
 10
339.3989666102201
 20
64.52660881783367
 30
0.0
 11
395.8989666102201
 21
78.52660881783369
 31
0.0
  0
LINE
  5
1B82
330
6B
100
AcDbEntity
  8
0
 62
     3
100
AcDbLine
 10
362.9024583426089
 20
84.35048287541674
 30
0.0
 11
366.2058827729429
 21
83.53193522896232
 31
0.0
  0
LINE
  5
1B83
330
6B
100
AcDbEntity
  8
0
 62
     3
100
AcDbLine
 10
336.5127989356657
 20
78.52660881783369
 30
0.0
 11
341.259307203277
 21
77.35048287541676
 31
0.0
  0
LINE
  5
1B84
330
6B
100
AcDbEntity
  8
0
 62
     3
100
AcDbLine
 10
391.152458342609
 20
77.35048287541676
 30
0.0
 11
395.8989666102201
 21
76.17435693299984
 31
0.0
  0
LINE
  5
1B85
330
6B
100
AcDbEntity
  8
0
 62
     3
100
AcDbLine
 10
366.205882772943
 20
71.16903052187121
 30
0.0
 11
369.509307203277
 21
70.35048287541677
 31
0.0
  0
LINE
  5
1B88
330
6B
100
AcDbEntity
  8
0
 62
     3
100
AcDbLine
 10
336.5127989356657
 20
62.17435693299984
 30
0.0
 11
393.0127989356657
 21
76.17435693299984
 31
0.0
  0
LINE
  5
1B89
330
6B
100
AcDbEntity
  8
0
 62
     3
100
AcDbLine
 10
339.3989666102201
 20
50.52660881783367
 30
0.0
 11
395.8989666102201
 21
64.52660881783367
 31
0.0
  0
LINE
  5
1B8A
330
6B
100
AcDbEntity
  8
0
 62
     3
100
AcDbLine
 10
362.9024583426089
 20
70.35048287541676
 30
0.0
 11
366.2058827729429
 21
69.53193522896231
 31
0.0
  0
LINE
  5
1B8B
330
6B
100
AcDbEntity
  8
0
 62
     3
100
AcDbLine
 10
336.5127989356657
 20
64.52660881783367
 30
0.0
 11
341.259307203277
 21
63.35048287541678
 31
0.0
  0
LINE
  5
1B8C
330
6B
100
AcDbEntity
  8
0
 62
     3
100
AcDbLine
 10
391.152458342609
 20
63.35048287541674
 30
0.0
 11
395.8989666102201
 21
62.17435693299984
 31
0.0
  0
LINE
  5
1B8D
330
6B
100
AcDbEntity
  8
0
 62
     3
100
AcDbLine
 10
366.205882772943
 20
57.16903052187121
 30
0.0
 11
377.9792134791914
 21
54.25174503713705
 31
0.0
  0
LINE
  5
1B8E
330
6B
100
AcDbEntity
  8
0
 62
     3
100
AcDbLine
 10
393.0127989356657
 20
62.17435693299984
 30
0.0
 11
387.7171452339906
 21
60.8621595555936
 31
0.0
  0
LINE
  5
1B8F
330
6B
100
AcDbEntity
  8
0
 62
     3
100
AcDbLine
 10
395.8989666102201
 20
50.52660881783367
 30
0.0
 11
390.6033129085452
 21
49.21441144042749
 31
0.0
  0
LINE
  5
1B91
330
6B
100
AcDbEntity
  8
0
 62
     3
100
AcDbLine
 10
336.5127989356657
 20
50.52660881783367
 30
0.0
 11
341.8084526373407
 21
49.21441144042749
 31
0.0
  0
LINE
  5
1B94
330
6B
100
AcDbEntity
  8
0
 62
     3
100
AcDbLine
 10
386.8058827729428
 20
36.656964
 30
0.0
 11
386.8058827729428
 21
44.36118305910826
 31
0.0
  0
LINE
  5
1B95
330
6B
100
AcDbEntity
  8
0
 62
     3
100
AcDbLine
 10
374.8058827729428
 20
36.656964
 30
0.0
 11
374.8058827729428
 21
44.36118305910826
 31
0.0
  0
LINE
  5
1B96
330
6B
100
AcDbEntity
  8
0
 62
     3
100
AcDbLine
 10
357.605882772943
 20
36.656964
 30
0.0
 11
357.605882772943
 21
44.36118305910826
 31
0.0
  0
LINE
  5
1B97
330
6B
100
AcDbEntity
  8
0
 62
     3
100
AcDbLine
 10
345.6058827729429
 20
36.656964
 30
0.0
 11
345.6058827729429
 21
44.36118305910826
 31
0.0
  0
ARC
  5
1B98
330
6B
100
AcDbEntity
  8
0
 62
     3
100
AcDbCircle
 10
391.8058827729428
 20
44.36118305910826
 30
0.0
 40
5.0
100
AcDbArc
 50
103.9168774332998
 51
180.0
  0
ARC
  5
1B9A
330
6B
100
AcDbEntity
  8
0
 62
     3
100
AcDbCircle
 10
391.8058827729428
 20
44.36118305910826
 30
0.0
 40
17.0
100
AcDbArc
 50
103.9168774332998
 51
180.0
  0
ARC
  5
1B9B
330
6B
100
AcDbEntity
  8
0
 62
     3
100
AcDbCircle
 10
340.605882772943
 20
44.36118305910826
 30
0.0
 40
5.0
100
AcDbArc
 50
0.0
 51
76.08312256670014
  0
ARC
  5
1B9D
330
6B
100
AcDbEntity
  8
0
 62
     3
100
AcDbCircle
 10
340.605882772943
 20
44.36118305910826
 30
0.0
 40
17.0
100
AcDbArc
 50
0.0
 51
35.57708733242086
  0
TEXT
  5
1BDD
330
6B
100
AcDbEntity
  8
0
 62
     3
100
AcDbText
 10
408.3868779892982
 20
131.3354188989684
 30
0.0
 40
2.0
  1
6
  7
高2
100
AcDbText
  0
LINE
  5
1BDE
330
6B
100
AcDbEntity
  8
0
 62
     3
100
AcDbLine
 10
487.8246419999999
 20
130.499851
 30
0.0
 11
404.224642
 21
130.4998509999999
 31
0.0
  0
LINE
  5
1BDF
330
6B
100
AcDbEntity
  8
0
 62
     7
100
AcDbLine
 10
409.042347
 20
134.5043949999999
 30
0.0
 11
407.142347
 21
131.2134989999999
 31
0.0
  0
LINE
  5
1BE0
330
6B
100
AcDbEntity
  8
0
 62
     7
100
AcDbLine
 10
409.042347
 20
134.5043949999999
 30
0.0
 11
410.942347
 21
131.2134989999999
 31
0.0
  0
LINE
  5
1BE1
330
6B
100
AcDbEntity
  8
0
 62
     7
100
AcDbLine
 10
407.142347
 20
131.2134989999999
 30
0.0
 11
410.942347
 21
131.2134989999999
 31
0.0
  0
TEXT
  5
1BE2
330
6B
100
AcDbEntity
  8
0
  6
Continuous
100
AcDbText
 10
415.8300759999998
 20
130.9998509999998
 30
0.0
 40
2.5
  1
15.12.24
  7
高2.5
100
AcDbText
  0
TEXT
  5
1BE3
330
6B
100
AcDbEntity
  8
0
  6
Continuous
100
AcDbText
 10
433.4354019999998
 20
130.9998509999998
 30
0.0
 40
2.5
  1
形状および仕様変更
  7
高2.5
100
AcDbText
  0
TEXT
  5
1BE4
330
6B
100
AcDbEntity
  8
0
  6
Continuous
100
AcDbText
 10
477.7271169999998
 20
130.999851
 30
0.0
 40
2.5
  1
今村
  7
高2.5
100
AcDbText
  0
LINE
  5
1EE3
330
6B
100
AcDbEntity
  8
0
 62
     7
100
AcDbLine
 10
407.6281122633834
 20
-2.059107154684511
 30
0.0
 11
471.6410383005928
 21
-2.059107154684511
 31
0.0
  0
TEXT
  5
1EE4
330
6B
100
AcDbEntity
  8
0
 62
     3
100
AcDbText
 10
409.1281122633835
 20
-1.059107154684511
 30
0.0
 40
3.2
  1
使用環境温度
  7
高3.2
100
AcDbText
  0
TEXT
  5
1EE5
330
6B
100
AcDbEntity
  8
0
 62
     3
100
AcDbText
 10
434.0562078361473
 20
-1.059107154684511
 30
0.0
 40
3.2
  1
-10～40℃
  7
高3.2
100
AcDbText
  0
LINE
  5
1F28
330
6B
100
AcDbEntity
  8
0
  6
Continuous
100
AcDbLine
 10
395.2058827729429
 20
24.906964
 30
0.0
 11
395.2058827729429
 21
-58.6074642847052
 31
0.0
  0
LINE
  5
1F29
330
6B
100
AcDbEntity
  8
0
  6
Continuous
100
AcDbLine
 10
337.2058827729429
 20
24.906964
 30
0.0
 11
337.2058827729429
 21
-58.6074642847052
 31
0.0
  0
LINE
  5
1F2A
330
6B
100
AcDbEntity
  8
0
  6
Continuous
100
AcDbLine
 10
392.7058827729429
 20
-57.3574642847052
 30
0.0
 11
339.7058827729429
 21
-57.3574642847052
 31
0.0
  0
LINE
  5
1F2E
330
6B
100
AcDbEntity
  8
0
  6
Continuous
100
AcDbLine
 10
331.9558827729429
 20
112.6004828754167
 30
0.0
 11
331.9558827729429
 21
149.6561747257453
 31
0.0
  0
LINE
  5
1F2F
330
6B
100
AcDbEntity
  8
0
  6
Continuous
100
AcDbLine
 10
400.4558827729429
 20
112.6004828754167
 30
0.0
 11
400.4558827729429
 21
149.6561747257453
 31
0.0
  0
LINE
  5
1F30
330
6B
100
AcDbEntity
  8
0
  6
Continuous
100
AcDbLine
 10
334.4558827729429
 20
148.4061747257453
 30
0.0
 11
397.9558827729429
 21
148.4061747257453
 31
0.0
  0
LINE
  5
1F34
330
6B
100
AcDbEntity
  8
0
  6
Continuous
100
AcDbLine
 10
353.2058841068981
 20
-34.90976592255234
 30
0.0
 11
353.2058841068981
 21
-52.17355921181046
 31
0.0
  0
LINE
  5
1F35
330
6B
100
AcDbEntity
  8
0
  6
Continuous
100
AcDbLine
 10
379.203315808785
 20
-33.51810545891039
 30
0.0
 11
379.203315808785
 21
-52.17355921181046
 31
0.0
  0
LINE
  5
1F36
330
6B
100
AcDbEntity
  8
0
  6
Continuous
100
AcDbLine
 10
355.7058841068981
 20
-50.92355921181046
 30
0.0
 11
376.703315808785
 21
-50.92355921181046
 31
0.0
  0
LINE
  5
1F3A
330
6B
100
AcDbEntity
  8
0
  6
Continuous
100
AcDbLine
 10
341.155882772943
 20
33.656964
 30
0.0
 11
324.2464523766482
 21
33.65696400000001
 31
0.0
  0
LINE
  5
1F3B
330
6B
100
AcDbEntity
  8
0
  6
Continuous
100
AcDbLine
 10
343.155882772943
 20
-41.84303599999998
 30
0.0
 11
324.2464523766482
 21
-41.84303599999997
 31
0.0
  0
LINE
  5
1F3C
330
6B
100
AcDbEntity
  8
0
  6
Continuous
100
AcDbLine
 10
325.4964523766482
 20
31.15696400000001
 30
0.0
 11
325.4964523766482
 21
-39.34303599999997
 31
0.0
  0
LINE
  5
1F40
330
6B
100
AcDbEntity
  8
0
100
AcDbLine
 10
352.0558827729429
 20
-16.343036
 30
0.0
 11
331.9571514712345
 21
-16.34303599999999
 31
0.0
  0
LINE
  5
1F41
330
6B
100
AcDbEntity
  8
0
100
AcDbLine
 10
341.155882772943
 20
33.656964
 30
0.0
 11
331.9571514712345
 21
33.65696400000001
 31
0.0
  0
LINE
  5
1F42
330
6B
100
AcDbEntity
  8
0
100
AcDbLine
 10
333.2071514712345
 20
-13.84303599999999
 30
0.0
 11
333.2071514712345
 21
31.15696400000001
 31
0.0
  0
LINE
  5
1F46
330
6B
100
AcDbEntity
  8
0
  6
Continuous
100
AcDbLine
 10
365.9558827729429
 20
-41.84303599999998
 30
0.0
 11
316.552207065165
 21
-41.84303599999997
 31
0.0
  0
LINE
  5
1F47
330
6B
100
AcDbEntity
  8
0
  6
Continuous
100
AcDbLine
 10
365.9558827729428
 20
137.156964
 30
0.0
 11
316.552207065165
 21
137.156964
 31
0.0
  0
LINE
  5
1F48
330
6B
100
AcDbEntity
  8
0
  6
Continuous
100
AcDbLine
 10
317.802207065165
 20
-39.34303599999997
 30
0.0
 11
317.802207065165
 21
134.656964
 31
0.0
  0
LINE
  5
1F4C
330
6B
100
AcDbEntity
  8
0
 62
     2
100
AcDbLine
 10
383.64761
 20
170.113123
 30
0.0
 11
383.628982
 21
170.23239
 31
0.0
  0
LINE
  5
1F4D
330
6B
100
AcDbEntity
  8
0
 62
     2
100
AcDbLine
 10
383.628982
 20
170.23239
 30
0.0
 11
383.606611
 21
170.346595
 31
0.0
  0
LINE
  5
1F4E
330
6B
100
AcDbEntity
  8
0
 62
     2
100
AcDbLine
 10
383.606611
 20
170.346595
 30
0.0
 11
383.580669
 21
170.454854
 31
0.0
  0
LINE
  5
1F4F
330
6B
100
AcDbEntity
  8
0
 62
     2
100
AcDbLine
 10
383.580669
 20
170.454854
 30
0.0
 11
383.551357
 21
170.556331
 31
0.0
  0
LINE
  5
1F50
330
6B
100
AcDbEntity
  8
0
 62
     2
100
AcDbLine
 10
383.551357
 20
170.556331
 30
0.0
 11
383.518901
 21
170.65024
 31
0.0
  0
LINE
  5
1F51
330
6B
100
AcDbEntity
  8
0
 62
     2
100
AcDbLine
 10
383.518901
 20
170.65024
 30
0.0
 11
383.483553
 21
170.735857
 31
0.0
  0
LINE
  5
1F52
330
6B
100
AcDbEntity
  8
0
 62
     2
100
AcDbLine
 10
383.483553
 20
170.735857
 30
0.0
 11
383.445585
 21
170.81252
 31
0.0
  0
LINE
  5
1F53
330
6B
100
AcDbEntity
  8
0
 62
     2
100
AcDbLine
 10
383.445585
 20
170.81252
 30
0.0
 11
383.40529
 21
170.879635
 31
0.0
  0
LINE
  5
1F54
330
6B
100
AcDbEntity
  8
0
 62
     2
100
AcDbLine
 10
383.40529
 20
170.879635
 30
0.0
 11
383.362981
 21
170.936685
 31
0.0
  0
LINE
  5
1F55
330
6B
100
AcDbEntity
  8
0
 62
     2
100
AcDbLine
 10
383.362981
 20
170.936685
 30
0.0
 11
383.318985
 21
170.983227
 31
0.0
  0
LINE
  5
1F56
330
6B
100
AcDbEntity
  8
0
 62
     2
100
AcDbLine
 10
383.318985
 20
170.983227
 30
0.0
 11
383.273641
 21
171.018903
 31
0.0
  0
LINE
  5
1F57
330
6B
100
AcDbEntity
  8
0
 62
     2
100
AcDbLine
 10
383.273641
 20
171.018903
 30
0.0
 11
383.2273
 21
171.043437
 31
0.0
  0
LINE
  5
1F58
330
6B
100
AcDbEntity
  8
0
 62
     2
100
AcDbLine
 10
383.2273
 20
171.043437
 30
0.0
 11
383.18032
 21
171.056639
 31
0.0
  0
LINE
  5
1F59
330
6B
100
AcDbEntity
  8
0
 62
     2
100
AcDbLine
 10
383.18032
 20
171.056639
 30
0.0
 11
383.133064
 21
171.058407
 31
0.0
  0
LINE
  5
1F5A
330
6B
100
AcDbEntity
  8
0
 62
     2
100
AcDbLine
 10
383.133064
 20
171.058407
 30
0.0
 11
383.085898
 21
171.048727
 31
0.0
  0
LINE
  5
1F5B
330
6B
100
AcDbEntity
  8
0
 62
     2
100
AcDbLine
 10
383.085898
 20
171.048727
 30
0.0
 11
383.039186
 21
171.027674
 31
0.0
  0
LINE
  5
1F5C
330
6B
100
AcDbEntity
  8
0
 62
     2
100
AcDbLine
 10
383.039186
 20
171.027674
 30
0.0
 11
382.993289
 21
170.995412
 31
0.0
  0
LINE
  5
1F5D
330
6B
100
AcDbEntity
  8
0
 62
     2
100
AcDbLine
 10
382.993289
 20
170.995412
 30
0.0
 11
382.948562
 21
170.952188
 31
0.0
  0
LINE
  5
1F5E
330
6B
100
AcDbEntity
  8
0
 62
     2
100
AcDbLine
 10
382.948562
 20
170.952188
 30
0.0
 11
382.905351
 21
170.898338
 31
0.0
  0
LINE
  5
1F5F
330
6B
100
AcDbEntity
  8
0
 62
     2
100
AcDbLine
 10
382.905351
 20
170.898338
 30
0.0
 11
382.863989
 21
170.834277
 31
0.0
  0
LINE
  5
1F60
330
6B
100
AcDbEntity
  8
0
 62
     2
100
AcDbLine
 10
382.863989
 20
170.834277
 30
0.0
 11
382.8247970000002
 21
170.760502
 31
0.0
  0
LINE
  5
1F61
330
6B
100
AcDbEntity
  8
0
 62
     2
100
AcDbLine
 10
382.8247970000002
 20
170.760502
 30
0.0
 11
382.788077
 21
170.677581
 31
0.0
  0
LINE
  5
1F62
330
6B
100
AcDbEntity
  8
0
 62
     2
100
AcDbLine
 10
382.788077
 20
170.677581
 30
0.0
 11
382.754113
 21
170.586156
 31
0.0
  0
LINE
  5
1F63
330
6B
100
AcDbEntity
  8
0
 62
     2
100
AcDbLine
 10
382.754113
 20
170.586156
 30
0.0
 11
382.723168
 21
170.486934
 31
0.0
  0
LINE
  5
1F64
330
6B
100
AcDbEntity
  8
0
 62
     2
100
AcDbLine
 10
382.723168
 20
170.486934
 30
0.0
 11
382.69548
 21
170.380681
 31
0.0
  0
LINE
  5
1F65
330
6B
100
AcDbEntity
  8
0
 62
     2
100
AcDbLine
 10
382.69548
 20
170.380681
 30
0.0
 11
382.671265
 21
170.268219
 31
0.0
  0
LINE
  5
1F66
330
6B
100
AcDbEntity
  8
0
 62
     2
100
AcDbLine
 10
382.671265
 20
170.268219
 30
0.0
 11
382.650708
 21
170.150417
 31
0.0
  0
LINE
  5
1F67
330
6B
100
AcDbEntity
  8
0
 62
     2
100
AcDbLine
 10
382.650708
 20
170.150417
 30
0.0
 11
382.633969
 21
170.028186
 31
0.0
  0
LINE
  5
1F68
330
6B
100
AcDbEntity
  8
0
 62
     2
100
AcDbLine
 10
382.633969
 20
170.028186
 30
0.0
 11
382.621178
 21
169.90247
 31
0.0
  0
LINE
  5
1F69
330
6B
100
AcDbEntity
  8
0
 62
     2
100
AcDbLine
 10
382.621178
 20
169.90247
 30
0.0
 11
382.612433
 21
169.774241
 31
0.0
  0
LINE
  5
1F6A
330
6B
100
AcDbEntity
  8
0
 62
     2
100
AcDbLine
 10
382.612433
 20
169.774241
 30
0.0
 11
382.607801
 21
169.644491
 31
0.0
  0
LINE
  5
1F6B
330
6B
100
AcDbEntity
  8
0
 62
     2
100
AcDbLine
 10
382.607801
 20
169.644491
 30
0.0
 11
382.607319
 21
169.514222
 31
0.0
  0
LINE
  5
1F6C
330
6B
100
AcDbEntity
  8
0
 62
     2
100
AcDbLine
 10
382.607319
 20
169.514222
 30
0.0
 11
382.61099
 21
169.38444
 31
0.0
  0
LINE
  5
1F6D
330
6B
100
AcDbEntity
  8
0
 62
     2
100
AcDbLine
 10
382.61099
 20
169.38444
 30
0.0
 11
382.618786
 21
169.256151
 31
0.0
  0
LINE
  5
1F6E
330
6B
100
AcDbEntity
  8
0
 62
     2
100
AcDbLine
 10
382.618786
 20
169.256151
 30
0.0
 11
382.630647
 21
169.130344
 31
0.0
  0
LINE
  5
1F6F
330
6B
100
AcDbEntity
  8
0
 62
     2
100
AcDbLine
 10
382.630647
 20
169.130344
 30
0.0
 11
382.646481
 21
169.007992
 31
0.0
  0
LINE
  5
1F70
330
6B
100
AcDbEntity
  8
0
 62
     2
100
AcDbLine
 10
382.646481
 20
169.007992
 30
0.0
 11
382.666165
 21
168.890041
 31
0.0
  0
LINE
  5
1F71
330
6B
100
AcDbEntity
  8
0
 62
     2
100
AcDbLine
 10
382.666165
 20
168.890041
 30
0.0
 11
382.689548
 21
168.777403
 31
0.0
  0
LINE
  5
1F72
330
6B
100
AcDbEntity
  8
0
 62
     2
100
AcDbLine
 10
382.689548
 20
168.777403
 30
0.0
 11
382.716448
 21
168.670948
 31
0.0
  0
LINE
  5
1F73
330
6B
100
AcDbEntity
  8
0
 62
     2
100
AcDbLine
 10
382.716448
 20
168.670948
 30
0.0
 11
382.746659
 21
168.5715
 31
0.0
  0
LINE
  5
1F74
330
6B
100
AcDbEntity
  8
0
 62
     2
100
AcDbLine
 10
382.746659
 20
168.5715
 30
0.0
 11
382.779945
 21
168.479826
 31
0.0
  0
LINE
  5
1F75
330
6B
100
AcDbEntity
  8
0
 62
     2
100
AcDbLine
 10
382.779945
 20
168.479826
 30
0.0
 11
382.81605
 21
168.396636
 31
0.0
  0
LINE
  5
1F76
330
6B
100
AcDbEntity
  8
0
 62
     2
100
AcDbLine
 10
382.81605
 20
168.396636
 30
0.0
 11
382.854696
 21
168.322572
 31
0.0
  0
LINE
  5
1F77
330
6B
100
AcDbEntity
  8
0
 62
     2
100
AcDbLine
 10
382.854696
 20
168.322572
 30
0.0
 11
382.895582
 21
168.258207
 31
0.0
  0
LINE
  5
1F78
330
6B
100
AcDbEntity
  8
0
 62
     2
100
AcDbLine
 10
382.895582
 20
168.258207
 30
0.0
 11
382.938394
 21
168.204038
 31
0.0
  0
LINE
  5
1F79
330
6B
100
AcDbEntity
  8
0
 62
     2
100
AcDbLine
 10
382.938394
 20
168.204038
 30
0.0
 11
382.9828
 21
168.160485
 31
0.0
  0
LINE
  5
1F7A
330
6B
100
AcDbEntity
  8
0
 62
     2
100
AcDbLine
 10
382.9828
 20
168.160485
 30
0.0
 11
383.028457
 21
168.127884
 31
0.0
  0
LINE
  5
1F7B
330
6B
100
AcDbEntity
  8
0
 62
     2
100
AcDbLine
 10
383.028457
 20
168.127884
 30
0.0
 11
383.075012
 21
168.106486
 31
0.0
  0
LINE
  5
1F7C
330
6B
100
AcDbEntity
  8
0
 62
     2
100
AcDbLine
 10
383.075012
 20
168.106486
 30
0.0
 11
383.122105
 21
168.096457
 31
0.0
  0
LINE
  5
1F7D
330
6B
100
AcDbEntity
  8
0
 62
     2
100
AcDbLine
 10
383.122105
 20
168.096457
 30
0.0
 11
383.169372
 21
168.097875
 31
0.0
  0
LINE
  5
1F7E
330
6B
100
AcDbEntity
  8
0
 62
     2
100
AcDbLine
 10
383.169372
 20
168.097875
 30
0.0
 11
383.216449
 21
168.110729
 31
0.0
  0
LINE
  5
1F7F
330
6B
100
AcDbEntity
  8
0
 62
     2
100
AcDbLine
 10
383.216449
 20
168.110729
 30
0.0
 11
383.26297
 21
168.134919
 31
0.0
  0
LINE
  5
1F80
330
6B
100
AcDbEntity
  8
0
 62
     2
100
AcDbLine
 10
383.26297
 20
168.134919
 30
0.0
 11
383.308577
 21
168.170259
 31
0.0
  0
LINE
  5
1F81
330
6B
100
AcDbEntity
  8
0
 62
     2
100
AcDbLine
 10
383.308577
 20
168.170259
 30
0.0
 11
383.352916
 21
168.216475
 31
0.0
  0
LINE
  5
1F82
330
6B
100
AcDbEntity
  8
0
 62
     2
100
AcDbLine
 10
383.352916
 20
168.216475
 30
0.0
 11
383.395646
 21
168.27321
 31
0.0
  0
LINE
  5
1F83
330
6B
100
AcDbEntity
  8
0
 62
     2
100
AcDbLine
 10
383.395646
 20
168.27321
 30
0.0
 11
383.436436
 21
168.340025
 31
0.0
  0
LINE
  5
1F84
330
6B
100
AcDbEntity
  8
0
 62
     2
100
AcDbLine
 10
383.436436
 20
168.340025
 30
0.0
 11
383.474971
 21
168.416404
 31
0.0
  0
LINE
  5
1F85
330
6B
100
AcDbEntity
  8
0
 62
     2
100
AcDbLine
 10
383.474971
 20
168.416404
 30
0.0
 11
383.5109519999999
 21
168.501757
 31
0.0
  0
LINE
  5
1F86
330
6B
100
AcDbEntity
  8
0
 62
     2
100
AcDbLine
 10
383.5109519999999
 20
168.501757
 30
0.0
 11
383.544102
 21
168.595424
 31
0.0
  0
LINE
  5
1F87
330
6B
100
AcDbEntity
  8
0
 62
     2
100
AcDbLine
 10
383.544102
 20
168.595424
 30
0.0
 11
383.574164
 21
168.696681
 31
0.0
  0
LINE
  5
1F88
330
6B
100
AcDbEntity
  8
0
 62
     2
100
AcDbLine
 10
383.574164
 20
168.696681
 30
0.0
 11
383.600906
 21
168.804745
 31
0.0
  0
LINE
  5
1F89
330
6B
100
AcDbEntity
  8
0
 62
     2
100
AcDbLine
 10
383.600906
 20
168.804745
 30
0.0
 11
383.624122
 21
168.918781
 31
0.0
  0
LINE
  5
1F8A
330
6B
100
AcDbEntity
  8
0
 62
     2
100
AcDbLine
 10
383.624122
 20
168.918781
 30
0.0
 11
383.643632
 21
169.037908
 31
0.0
  0
TEXT
  5
1F8B
330
6B
100
AcDbEntity
  8
0
  6
Continuous
 62
     4
100
AcDbText
 10
362.2058827729429
 20
-56.7324642847052
 30
0.0
 40
3.0
  1
\U+220558
100
AcDbText
  0
LINE
  5
1F8C
330
6B
100
AcDbEntity
  8
0
  6
ByBlock
 62
     0
370
    -2
100
AcDbLine
 10
339.7058827729429
 20
-58.0273367847052
 30
0.0
 11
337.2058827729429
 21
-57.3574642847052
 31
0.0
  0
LINE
  5
1F8D
330
6B
100
AcDbEntity
  8
0
  6
ByBlock
 62
     0
370
    -2
100
AcDbLine
 10
337.2058827729429
 20
-57.3574642847052
 30
0.0
 11
339.7058827729429
 21
-56.6875917847052
 31
0.0
  0
LINE
  5
1F8E
330
6B
100
AcDbEntity
  8
0
  6
ByBlock
 62
     0
370
    -2
100
AcDbLine
 10
337.2058827729429
 20
-57.3574642847052
 30
0.0
 11
339.7058827729429
 21
-57.3574642847052
 31
0.0
  0
LINE
  5
1F8F
330
6B
100
AcDbEntity
  8
0
  6
ByBlock
 62
     0
370
    -2
100
AcDbLine
 10
392.7058827729429
 20
-56.6875917847052
 30
0.0
 11
395.2058827729429
 21
-57.3574642847052
 31
0.0
  0
LINE
  5
1F90
330
6B
100
AcDbEntity
  8
0
  6
ByBlock
 62
     0
370
    -2
100
AcDbLine
 10
395.2058827729429
 20
-57.3574642847052
 30
0.0
 11
392.7058827729429
 21
-58.0273367847052
 31
0.0
  0
LINE
  5
1F91
330
6B
100
AcDbEntity
  8
0
  6
ByBlock
 62
     0
370
    -2
100
AcDbLine
 10
395.2058827729429
 20
-57.3574642847052
 30
0.0
 11
392.7058827729429
 21
-57.3574642847052
 31
0.0
  0
TEXT
  5
1F92
330
6B
100
AcDbEntity
  8
0
  6
Continuous
 62
     4
100
AcDbText
 10
360.2058827729429
 20
149.0311747257453
 30
0.0
 40
3.0
  1
\U+220568.5
100
AcDbText
  0
LINE
  5
1F93
330
6B
100
AcDbEntity
  8
0
  6
ByBlock
 62
     0
370
    -2
100
AcDbLine
 10
397.9558827729429
 20
149.0760472257453
 30
0.0
 11
400.4558827729429
 21
148.4061747257453
 31
0.0
  0
LINE
  5
1F94
330
6B
100
AcDbEntity
  8
0
  6
ByBlock
 62
     0
370
    -2
100
AcDbLine
 10
400.4558827729429
 20
148.4061747257453
 30
0.0
 11
397.9558827729429
 21
147.7363022257453
 31
0.0
  0
LINE
  5
1F95
330
6B
100
AcDbEntity
  8
0
  6
ByBlock
 62
     0
370
    -2
100
AcDbLine
 10
400.4558827729429
 20
148.4061747257453
 30
0.0
 11
397.9558827729429
 21
148.4061747257453
 31
0.0
  0
LINE
  5
1F96
330
6B
100
AcDbEntity
  8
0
  6
ByBlock
 62
     0
370
    -2
100
AcDbLine
 10
334.4558827729429
 20
147.7363022257453
 30
0.0
 11
331.9558827729429
 21
148.4061747257453
 31
0.0
  0
LINE
  5
1F97
330
6B
100
AcDbEntity
  8
0
  6
ByBlock
 62
     0
370
    -2
100
AcDbLine
 10
331.9558827729429
 20
148.4061747257453
 30
0.0
 11
334.4558827729429
 21
149.0760472257453
 31
0.0
  0
LINE
  5
1F98
330
6B
100
AcDbEntity
  8
0
  6
ByBlock
 62
     0
370
    -2
100
AcDbLine
 10
331.9558827729429
 20
148.4061747257453
 30
0.0
 11
334.4558827729429
 21
148.4061747257453
 31
0.0
  0
TEXT
  5
1F99
330
6B
100
AcDbEntity
  8
0
  6
Continuous
 62
     4
100
AcDbText
 10
362.2849710224232
 20
-50.29855921181046
 30
0.0
 40
3.0
  1
E26
100
AcDbText
  0
LINE
  5
1F9A
330
6B
100
AcDbEntity
  8
0
  6
ByBlock
 62
     0
370
    -2
100
AcDbLine
 10
376.703315808785
 20
-50.25368671181047
 30
0.0
 11
379.203315808785
 21
-50.92355921181046
 31
0.0
  0
LINE
  5
1F9B
330
6B
100
AcDbEntity
  8
0
  6
ByBlock
 62
     0
370
    -2
100
AcDbLine
 10
379.203315808785
 20
-50.92355921181046
 30
0.0
 11
376.703315808785
 21
-51.59343171181046
 31
0.0
  0
LINE
  5
1F9C
330
6B
100
AcDbEntity
  8
0
  6
ByBlock
 62
     0
370
    -2
100
AcDbLine
 10
379.203315808785
 20
-50.92355921181046
 30
0.0
 11
376.703315808785
 21
-50.92355921181046
 31
0.0
  0
LINE
  5
1F9D
330
6B
100
AcDbEntity
  8
0
  6
ByBlock
 62
     0
370
    -2
100
AcDbLine
 10
355.7058841068981
 20
-51.59343171181046
 30
0.0
 11
353.2058841068981
 21
-50.92355921181046
 31
0.0
  0
LINE
  5
1F9E
330
6B
100
AcDbEntity
  8
0
  6
ByBlock
 62
     0
370
    -2
100
AcDbLine
 10
353.2058841068981
 20
-50.92355921181046
 30
0.0
 11
355.7058841068981
 21
-50.25368671181047
 31
0.0
  0
LINE
  5
1F9F
330
6B
100
AcDbEntity
  8
0
  6
ByBlock
 62
     0
370
    -2
100
AcDbLine
 10
353.2058841068981
 20
-50.92355921181046
 30
0.0
 11
355.7058841068981
 21
-50.92355921181046
 31
0.0
  0
TEXT
  5
1FA0
330
6B
100
AcDbEntity
  8
0
  6
Continuous
 62
     4
100
AcDbText
 10
324.8714523766482
 20
-11.61038360411748
 30
0.0
 40
3.0
  1
75.5
 50
90.0
100
AcDbText
  0
LINE
  5
1FA1
330
6B
100
AcDbEntity
  8
0
  6
ByBlock
 62
     0
370
    -2
100
AcDbLine
 10
326.1663248766482
 20
-39.34303599999997
 30
0.0
 11
325.4964523766482
 21
-41.84303599999997
 31
0.0
  0
LINE
  5
1FA2
330
6B
100
AcDbEntity
  8
0
  6
ByBlock
 62
     0
370
    -2
100
AcDbLine
 10
325.4964523766482
 20
-41.84303599999997
 30
0.0
 11
324.8265798766482
 21
-39.34303599999997
 31
0.0
  0
LINE
  5
1FA3
330
6B
100
AcDbEntity
  8
0
  6
ByBlock
 62
     0
370
    -2
100
AcDbLine
 10
325.4964523766482
 20
-41.84303599999997
 30
0.0
 11
325.4964523766482
 21
-39.34303599999997
 31
0.0
  0
LINE
  5
1FA4
330
6B
100
AcDbEntity
  8
0
  6
ByBlock
 62
     0
370
    -2
100
AcDbLine
 10
324.8265798766482
 20
31.15696400000001
 30
0.0
 11
325.4964523766482
 21
33.65696400000001
 31
0.0
  0
LINE
  5
1FA5
330
6B
100
AcDbEntity
  8
0
  6
ByBlock
 62
     0
370
    -2
100
AcDbLine
 10
325.4964523766482
 20
33.65696400000001
 30
0.0
 11
326.1663248766482
 21
31.15696400000001
 31
0.0
  0
LINE
  5
1FA6
330
6B
100
AcDbEntity
  8
0
  6
ByBlock
 62
     0
370
    -2
100
AcDbLine
 10
325.4964523766482
 20
33.65696400000001
 30
0.0
 11
325.4964523766482
 21
31.15696400000001
 31
0.0
  0
TEXT
  5
1FA7
330
6B
100
AcDbEntity
  8
0
  6
Continuous
 62
     4
100
AcDbText
 10
332.5821514712345
 20
6.406964000000005
 30
0.0
 40
3.0
  1
50
 50
90.0
100
AcDbText
  0
LINE
  5
1FA8
330
6B
100
AcDbEntity
  8
0
  6
ByBlock
 62
     0
370
    -2
100
AcDbLine
 10
332.5372789712345
 20
31.15696400000001
 30
0.0
 11
333.2071514712345
 21
33.65696400000001
 31
0.0
  0
LINE
  5
1FA9
330
6B
100
AcDbEntity
  8
0
  6
ByBlock
 62
     0
370
    -2
100
AcDbLine
 10
333.2071514712345
 20
33.65696400000001
 30
0.0
 11
333.8770239712345
 21
31.15696400000001
 31
0.0
  0
LINE
  5
1FAA
330
6B
100
AcDbEntity
  8
0
  6
ByBlock
 62
     0
370
    -2
100
AcDbLine
 10
333.2071514712345
 20
33.65696400000001
 30
0.0
 11
333.2071514712345
 21
31.15696400000001
 31
0.0
  0
LINE
  5
1FAB
330
6B
100
AcDbEntity
  8
0
  6
ByBlock
 62
     0
370
    -2
100
AcDbLine
 10
333.8770239712345
 20
-13.84303599999999
 30
0.0
 11
333.2071514712345
 21
-16.34303599999999
 31
0.0
  0
LINE
  5
1FAC
330
6B
100
AcDbEntity
  8
0
  6
ByBlock
 62
     0
370
    -2
100
AcDbLine
 10
333.2071514712345
 20
-16.34303599999999
 30
0.0
 11
332.5372789712345
 21
-13.84303599999999
 31
0.0
  0
LINE
  5
1FAD
330
6B
100
AcDbEntity
  8
0
  6
ByBlock
 62
     0
370
    -2
100
AcDbLine
 10
333.2071514712345
 20
-16.34303599999999
 30
0.0
 11
333.2071514712345
 21
-13.84303599999999
 31
0.0
  0
TEXT
  5
1FAE
330
6B
100
AcDbEntity
  8
0
  6
Continuous
 62
     4
100
AcDbText
 10
317.177207065165
 20
31.98291211720198
 30
0.0
 40
3.0
  1
179
 50
90.0
100
AcDbText
  0
LINE
  5
1FAF
330
6B
100
AcDbEntity
  8
0
  6
ByBlock
 62
     0
370
    -2
100
AcDbLine
 10
317.132334565165
 20
134.656964
 30
0.0
 11
317.802207065165
 21
137.156964
 31
0.0
  0
LINE
  5
1FB0
330
6B
100
AcDbEntity
  8
0
  6
ByBlock
 62
     0
370
    -2
100
AcDbLine
 10
317.802207065165
 20
137.156964
 30
0.0
 11
318.472079565165
 21
134.656964
 31
0.0
  0
LINE
  5
1FB1
330
6B
100
AcDbEntity
  8
0
  6
ByBlock
 62
     0
370
    -2
100
AcDbLine
 10
317.802207065165
 20
137.156964
 30
0.0
 11
317.802207065165
 21
134.656964
 31
0.0
  0
LINE
  5
1FB2
330
6B
100
AcDbEntity
  8
0
  6
ByBlock
 62
     0
370
    -2
100
AcDbLine
 10
318.472079565165
 20
-39.34303599999997
 30
0.0
 11
317.802207065165
 21
-41.84303599999997
 31
0.0
  0
LINE
  5
1FB3
330
6B
100
AcDbEntity
  8
0
  6
ByBlock
 62
     0
370
    -2
100
AcDbLine
 10
317.802207065165
 20
-41.84303599999997
 30
0.0
 11
317.132334565165
 21
-39.34303599999997
 31
0.0
  0
LINE
  5
1FB4
330
6B
100
AcDbEntity
  8
0
  6
ByBlock
 62
     0
370
    -2
100
AcDbLine
 10
317.802207065165
 20
-41.84303599999997
 30
0.0
 11
317.802207065165
 21
-39.34303599999997
 31
0.0
  0
ENDSEC
  0
SECTION
  2
OBJECTS
  0
DICTIONARY
  5
C
330
0
100
AcDbDictionary
281
     1
  3
ACAD_2007HEADERVARS_RT
350
1FB8
  3
ACAD_COLOR
350
62
  3
ACAD_GROUP
350
D
  3
ACAD_LAYOUT
350
61
  3
ACAD_MATERIAL
350
10
  3
ACAD_MLEADERSTYLE
350
65
  3
ACAD_MLINESTYLE
350
5E
  3
ACAD_PLOTSETTINGS
350
60
  3
ACAD_PLOTSTYLENAME
350
E
  3
ACAD_SCALELIST
350
42
  3
ACAD_TABLESTYLE
350
63
  3
ACAD_VISUALSTYLE
350
29
  3
ACDB_RECOMPOSE_DATA
350
1FB6
  3
AcDbVariableDictionary
350
5A4
  3
DWGPROPS
350
1FB7
  0
DICTIONARY
  5
41F
330
2
100
AcDbDictionary
280
     1
281
     1
  3
ACAD_LAYERSTATES
360
420
  0
DICTIONARY
  5
5A0
330
54
100
AcDbDictionary
280
     1
281
     1
  3
ADSK_XREC_LAYER_RECONCILED
360
5A1
  0
DICTIONARY
  5
7CB
330
6B
100
AcDbDictionary
280
     1
281
     1
  3
ACAD_SORTENTS
360
7CC
  0
DICTIONARY
  5
1FB8
102
{ACAD_REACTORS
330
C
102
}
330
C
100
AcDbDictionary
281
     1
  3
DIMARCSYM
350
1FBA
  3
DIMFXL
350
1FB9
  3
DIMJOGANG
350
1FBB
  0
DICTIONARY
  5
62
102
{ACAD_REACTORS
330
C
102
}
330
C
100
AcDbDictionary
281
     1
  0
DICTIONARY
  5
D
102
{ACAD_REACTORS
330
C
102
}
330
C
100
AcDbDictionary
281
     1
  0
DICTIONARY
  5
61
102
{ACAD_REACTORS
330
C
102
}
330
C
100
AcDbDictionary
281
     1
  3
Model
350
6E
  3
レイアウト1
350
6A
  0
DICTIONARY
  5
10
102
{ACAD_REACTORS
330
C
102
}
330
C
100
AcDbDictionary
281
     1
  3
ByBlock
350
19
  3
ByLayer
350
11
  3
Global
350
21
  0
DICTIONARY
  5
65
102
{ACAD_REACTORS
330
C
102
}
330
C
100
AcDbDictionary
281
     1
  3
Standard
350
66
  0
DICTIONARY
  5
5E
102
{ACAD_REACTORS
330
C
102
}
330
C
100
AcDbDictionary
281
     1
  3
Standard
350
5F
  0
DICTIONARY
  5
60
102
{ACAD_REACTORS
330
C
102
}
330
C
100
AcDbDictionary
281
     1
  0
ACDBDICTIONARYWDFLT
  5
E
102
{ACAD_REACTORS
330
C
102
}
330
C
100
AcDbDictionary
281
     1
  3
Normal
350
F
100
AcDbDictionaryWithDefault
340
F
  0
DICTIONARY
  5
42
102
{ACAD_REACTORS
330
C
102
}
330
C
100
AcDbDictionary
281
     1
  3
A0
350
43
  3
A1
350
44
  3
A2
350
45
  3
A3
350
46
  3
A4
350
47
  3
A5
350
48
  3
A6
350
49
  3
A7
350
4A
  3
A8
350
4B
  3
A9
350
4C
  3
B0
350
4D
  3
B1
350
4E
  3
B2
350
4F
  3
B3
350
50
  3
B4
350
51
  3
B5
350
52
  3
B6
350
53
  0
DICTIONARY
  5
63
102
{ACAD_REACTORS
330
C
102
}
330
C
100
AcDbDictionary
281
     1
  3
Standard
350
64
  0
DICTIONARY
  5
29
102
{ACAD_REACTORS
330
C
102
}
330
C
100
AcDbDictionary
281
     1
  3
2dWireframe
350
2F
  3
3dWireframe
350
41E
  3
Basic
350
2E
  3
Brighten
350
35
  3
ColorChange
350
39
  3
Conceptual
350
32
  3
Dim
350
34
  3
EdgeColorOff
350
41
  3
Facepattern
350
38
  3
Flat
350
2A
  3
FlatWithEdges
350
2B
  3
Gouraud
350
2C
  3
GouraudWithEdges
350
2D
  3
Hidden
350
31
  3
JitterOff
350
3F
  3
Linepattern
350
37
  3
OverhangOff
350
40
  3
Realistic
350
33
  3
Shaded
350
3E
  3
Shaded with edges
350
3D
  3
Shades of Gray
350
3A
  3
Sketchy
350
3B
  3
Thicken
350
36
  3
Wireframe
350
30
  3
X-Ray
350
3C
  0
XRECORD
  5
1FB6
102
{ACAD_REACTORS
330
C
102
}
330
C
100
AcDbXrecord
280
     1
 90
        1
330
64
  0
DICTIONARY
  5
5A4
102
{ACAD_REACTORS
330
C
102
}
330
C
100
AcDbDictionary
281
     1
  3
CANNOSCALE
350
5A7
  3
CMLEADERSTYLE
350
5A6
  3
CTABLESTYLE
350
5A5
  3
DIMASSOC
350
5AA
  3
INDEXCTL
350
5A9
  3
SORTENTS
350
5A8
  3
XCLIPFRAME
350
1EE9
  0
XRECORD
  5
1FB7
102
{ACAD_REACTORS
330
C
102
}
330
C
100
AcDbXrecord
280
     1
  1
DWGPROPS COOKIE
  2

  3

  4

  6

  7

  8
imamura
  9

300
=
301
=
302
=
303
=
304
=
305
=
306
=
307
=
308
=
309
=
 40
0.5218749421296297
 41
2456071.608396829
 42
2457402.622368588
  1

 90
        0
  0
DICTIONARY
  5
420
102
{ACAD_REACTORS
330
41F
102
}
330
41F
100
AcDbDictionary
281
     1
  0
XRECORD
  5
5A1
102
{ACAD_REACTORS
330
5A0
102
}
330
5A0
100
AcDbXrecord
280
     1
290
     1
  0
SORTENTSTABLE
  5
7CC
102
{ACAD_REACTORS
330
7CB
102
}
330
7CB
100
AcDbSortentsTable
330
6B
331
116
  5
116
331
1CC
  5
9A4
331
112
  5
112
331
1EE4
  5
1FB3
331
18D
  5
1E0
331
207
  5
1655
331
10E
  5
10E
331
1C8
  5
376
331
189
  5
1D1
331
1C4
  5
2F6
331
10A
  5
10A
331
1AA7
  5
1F66
331
DAD
  5
166D
331
1F41
  5
1BE2
331
1654
  5
19E3
331
9A5
  5
166B
331
1A9B
  5
1F62
331
1650
  5
19DF
331
1B46
  5
1F8C
331
165C
  5
19EB
331
1B9D
  5
1FA8
331
1B3E
  5
1F89
331
19D7
  5
1B0B
331
1658
  5
19E7
331
1B3A
  5
1F7E
331
1F7C
  5
1BD
331
1F78
  5
1B9
331
1FB3
  5
1B93
331
1F74
  5
1B5
331
1F70
  5
1AF
331
1FF
  5
164E
331
106
  5
106
331
145
  5
145
331
141
  5
141
331
1FB
  5
164A
331
1BC
  5
2F2
331
102
  5
102
331
13D
  5
13D
331
1F7
  5
1646
331
1B8
  5
221
331
FE
  5
FE
331
1F3
  5
1642
331
FA
  5
FA
331
139
  5
139
331
1F35
  5
1F3F
331
1B0E
  5
1F7A
331
164C
  5
19DB
331
1A97
  5
1B82
331
1B4
  5
209
331
1B0A
  5
1F76
331
1648
  5
19D7
331
1A93
  5
1B83
331
1B06
  5
1F72
331
1644
  5
17E2
331
1A8F
  5
1B86
331
1B95
  5
1FA2
331
1B36
  5
1F8B
331
1B91
  5
1FA1
331
17E3
  5
1AF8
331
1B8D
  5
1F9C
331
17DF
  5
1AF4
331
1BE4
  5
1FB1
331
1B89
  5
1F85
331
1BE0
  5
1FAD
331
1FAF
  5
1B9A
331
1FAB
  5
1EE5
331
1F6C
  5
1A9
331
1FA7
  5
1F33
331
1F68
  5
1A5
331
1FA3
  5
1F3C
331
1F64
  5
1A1
331
1F60
  5
19D
331
1EF
  5
151C
331
F6
  5
F6
331
135
  5
135
331
1EB
  5
1518
331
1AC
  5
204
331
F2
  5
F2
331
131
  5
131
331
1F29
  5
1F53
331
1A8
  5
1FF
331
12D
  5
12D
331
1E3
  5
1147
331
EA
  5
EA
331
129
  5
129
331
151C
  5
167D
331
1A4
  5
1FB
331
1518
  5
1679
331
1A0
  5
1F7
331
1AF2
  5
1F60
331
2F9
  5
1665
331
19F3
  5
1B76
331
19EF
  5
1B44
331
2F5
  5
1661
331
1AEA
  5
1B78
331
2F1
  5
165D
331
19EB
  5
1B40
331
1B85
  5
1F98
331
1B81
  5
1F83
331
167B
  5
1AEB
331
1677
  5
1AC8
331
1B79
  5
1F93
331
1673
  5
1AC2
331
1F9F
  5
1F43
331
1F9B
  5
1F45
331
1F5C
  5
199
331
1F97
  5
1F4C
331
1F58
  5
195
331
1F93
  5
1F4E
331
1F54
  5
191
331
1F50
  5
18D
331
1DF
  5
1143
331
E6
  5
E6
331
125
  5
125
331
19C
  5
1F3
331
E2
  5
E2
331
121
  5
121
331
11D
  5
11D
331
198
  5
1EF
331
DE
  5
DE
331
1D3
  5
DAF
331
119
  5
119
331
1BDE
  5
1FAB
331
19E7
  5
1B39
331
194
  5
1EB
331
1148
  5
1676
331
190
  5
1E3
331
19E3
  5
1B25
331
221
  5
165A
331
19DF
  5
1B15
331
1144
  5
1672
331
19DB
  5
1B0F
331
209
  5
1656
331
166F
  5
1A98
331
166B
  5
1A94
331
1667
  5
1A8E
331
1663
  5
19F2
331
1F8F
  5
1F55
331
1F8B
  5
1F5B
331
1F4C
  5
189
331
1F48
  5
1B8A
331
1F87
  5
1CC
331
1F83
  5
1C8
331
1CF
  5
DAD
331
115
  5
115
331
1CB
  5
538
331
111
  5
111
331
1EE3
  5
1FB2
331
18C
  5
1DF
331
206
  5
1654
331
10D
  5
10D
331
1C7
  5
2F9
331
202
  5
1651
331
1AA6
  5
1F63
331
1C3
  5
2F5
331
109
  5
109
331
1F40
  5
1BE1
331
1657
  5
19E6
331
1653
  5
19E2
331
9A4
  5
166A
331
1A9A
  5
1F64
331
1B45
  5
1F8E
331
165F
  5
19EE
331
165B
  5
19EA
331
1B3D
  5
1F87
331
19D6
  5
1B0A
331
1B98
  5
1FA4
331
1F7F
  5
1C4
331
1F7B
  5
1BC
331
1F77
  5
1B8
331
1FB2
  5
1B90
331
1F73
  5
1B4
331
1FE
  5
164D
331
105
  5
105
331
144
  5
144
331
140
  5
140
331
1FA
  5
1649
331
1F3C
  5
1F36
331
1BB
  5
2F1
331
101
  5
101
331
1F6
  5
1645
331
FD
  5
FD
331
13C
  5
13C
331
164F
  5
19DE
331
1B7
  5
20C
331
1F2
  5
1641
331
F9
  5
F9
331
138
  5
138
331
1F34
  5
1F3E
331
1B0D
  5
1F79
331
164B
  5
19DA
331
1B3
  5
207
331
1F30
  5
1F4A
331
1647
  5
19D6
331
1B09
  5
1F75
331
538
  5
1669
331
1A92
  5
1B84
331
1B05
  5
1F71
331
1A8E
  5
1F5C
331
1643
  5
17E1
331
1B94
  5
1FA3
331
1B35
  5
1F92
331
17E2
  5
1AF7
331
1B8C
  5
1F9E
331
17DE
  5
1AF3
331
1BE3
  5
1FB0
331
1B88
  5
1F86
331
1FAE
  5
1BE0
331
1F6F
  5
1AC
331
1FAA
  5
1F32
331
1F6B
  5
1A8
331
1FA6
  5
1F39
331
1F67
  5
1A4
331
1FA2
  5
1F3B
331
1F63
  5
1A0
331
1EE
  5
151B
331
1AF
  5
205
331
F5
  5
F5
331
134
  5
134
331
130
  5
130
331
1EA
  5
1517
331
1AB
  5
202
331
F1
  5
F1
331
1F28
  5
1F52
331
1A7
  5
1FE
331
12C
  5
12C
331
1E2
  5
1146
331
E9
  5
E9
331
128
  5
128
331
151B
  5
167C
331
1A3
  5
1FA
331
1517
  5
1678
331
1AF1
  5
1F5F
331
2F8
  5
1664
331
19F2
  5
1B47
331
19EE
  5
1B43
331
2F4
  5
1660
331
1AE9
  5
1B7A
331
2F0
  5
165C
331
19EA
  5
1B3F
331
1B84
  5
1F9A
331
1B80
  5
1F84
331
167A
  5
1AE9
331
1676
  5
1AC7
331
1B78
  5
1F95
331
1672
  5
1AC1
331
1F9E
  5
1F42
331
1F5F
  5
19C
331
1F9A
  5
1F44
331
1F5B
  5
198
331
1F96
  5
1F4B
331
1F57
  5
194
331
1F92
  5
1F51
331
1F53
  5
190
331
19F
  5
1F6
331
E5
  5
E5
331
124
  5
124
331
19B
  5
1F2
331
E1
  5
E1
331
120
  5
120
331
11C
  5
11C
331
197
  5
1EE
331
DD
  5
DD
331
1BDD
  5
1FAA
331
1ACD
  5
1F6E
331
193
  5
1EA
331
118
  5
118
331
19E6
  5
1B36
331
19E2
  5
1B23
331
1147
  5
1675
331
1143
  5
1671
331
19DE
  5
1B12
331
20C
  5
1659
331
19DA
  5
1B0E
331
166E
  5
1A97
331
166A
  5
1A91
331
1666
  5
1A8D
331
1B48
  5
1F8D
331
1662
  5
19F1
331
1F8E
  5
1F5A
331
1F4F
  5
18C
331
1F8A
  5
1CF
331
1F86
  5
1CB
331
1F82
  5
1C7
331
1CE
  5
9A6
331
114
  5
114
331
18F
  5
1E2
331
1CA
  5
378
331
110
  5
110
331
18B
  5
1D9
331
205
  5
1653
331
10C
  5
10C
331
1F47
  5
1B89
331
DAF
  5
166F
331
1C6
  5
2F8
331
1AA5
  5
1F6A
331
201
  5
1650
331
108
  5
108
331
1AA1
  5
1F68
331
1656
  5
19E5
331
1652
  5
19E1
331
1B10
  5
1F7C
331
1A99
  5
1F61
331
1B44
  5
1F7F
331
165E
  5
19ED
331
165A
  5
19E9
331
1B9B
  5
1FA7
331
1B3C
  5
1F88
331
1B38
  5
1F91
331
1F7E
  5
1C3
331
1F7A
  5
1BB
331
1F76
  5
1B7
331
1FB1
  5
1B9D
331
1F72
  5
1B3
331
1FD
  5
164C
331
1BE
  5
2F4
331
104
  5
104
331
143
  5
143
331
13F
  5
13F
331
1F9
  5
1648
331
1F3B
  5
1F35
331
1BA
  5
2F0
331
100
  5
100
331
1F5
  5
1644
331
FC
  5
FC
331
13B
  5
13B
331
164E
  5
19DD
331
1B6
  5
20B
331
1F1
  5
151E
331
1B0C
  5
1F78
331
164A
  5
19D9
331
F8
  5
F8
331
1646
  5
17E4
331
1B08
  5
1F74
331
1A91
  5
1F5D
331
377
  5
1667
331
1A8D
  5
1F5E
331
1642
  5
17E0
331
1B97
  5
1FA6
331
19FA
  5
1B77
331
1B34
  5
1F90
331
1B8F
  5
1F9F
331
17E1
  5
1AF6
331
1B8B
  5
1F9B
331
17DD
  5
1AF2
331
1BE2
  5
1FAF
331
1FAD
  5
1F2C
331
1F6E
  5
1AB
331
1FA9
  5
1F2E
331
1F6A
  5
1A7
331
1FA5
  5
1F38
331
1F66
  5
1A3
331
1FA1
  5
1F3A
331
1F62
  5
19F
331
137
  5
137
331
1F2F
  5
1F49
331
1ED
  5
151A
331
F4
  5
F4
331
133
  5
133
331
12F
  5
12F
331
1E9
  5
1149
331
1AA
  5
201
331
F0
  5
F0
331
151E
  5
17DE
331
1A6
  5
1FD
331
EC
  5
EC
331
12B
  5
12B
331
1E1
  5
1145
331
E8
  5
E8
331
151A
  5
167B
331
1A2
  5
1F9
331
19F1
  5
1B46
331
2F7
  5
1663
331
1AEC
  5
1B79
331
2F3
  5
165F
331
19ED
  5
1B42
331
19E9
  5
1B3D
331
1B83
  5
1F97
331
167D
  5
1AF1
331
1679
  5
1ACB
331
1B7B
  5
1F96
331
1675
  5
1AC4
331
1671
  5
1AAE
331
1F9D
  5
1F41
331
1F5E
  5
19B
331
1F99
  5
1F47
331
1F5A
  5
197
331
1F95
  5
1F50
331
1F56
  5
193
331
1F91
  5
1F57
331
1F52
  5
18F
331
127
  5
127
331
19E
  5
1F5
331
E4
  5
E4
331
123
  5
123
331
11F
  5
11F
331
1D9
  5
1142
331
19A
  5
1F1
331
E0
  5
E0
331
196
  5
1ED
331
11B
  5
11B
331
1D1
  5
DAE
331
1ACC
  5
1F6C
331
192
  5
1E9
331
19E5
  5
1B33
331
1AC8
  5
1F70
331
1146
  5
1674
331
19E1
  5
1B22
331
1142
  5
1670
331
1AC4
  5
1F6D
331
20B
  5
1658
331
19DD
  5
1B11
331
19D9
  5
1B0D
331
1B77
  5
1F81
331
166D
  5
1A96
331
1669
  5
1A90
331
1665
  5
19FA
331
1661
  5
19F0
331
1F8D
  5
1F59
331
1F4E
  5
18B
331
1F89
  5
1CE
331
1F85
  5
1CA
331
1F81
  5
1C6
331
117
  5
117
331
1CD
  5
9A5
331
113
  5
113
331
1EE5
  5
1FB4
331
18E
  5
1E1
331
1C9
  5
377
331
10F
  5
10F
331
18A
  5
1D3
331
204
  5
1652
331
10B
  5
10B
331
1F46
  5
1B88
331
DAE
  5
166E
331
1C5
  5
2F7
331
1AA4
  5
1F69
331
1F42
  5
1EE4
331
200
  5
164F
331
1655
  5
19E4
331
1AA0
  5
1F67
331
9A6
  5
166C
331
1651
  5
19E0
331
1A98
  5
1B81
331
1B47
  5
1F8F
331
1B43
  5
1F80
331
165D
  5
19EC
331
1659
  5
19E8
331
1B9A
  5
1FA5
331
1B3B
  5
1F7D
331
1F7D
  5
1BE
331
1F79
  5
1BA
331
1FB4
  5
1B94
331
1F75
  5
1B6
331
1FB0
  5
1B9C
331
1F71
  5
1B1
331
107
  5
107
331
146
  5
146
331
1FC
  5
164B
331
1BD
  5
2F3
331
103
  5
103
331
142
  5
142
331
13E
  5
13E
331
1F8
  5
1647
331
1F3A
  5
1F34
331
1B9
  5
222
331
FF
  5
FF
331
1F4
  5
1643
331
FB
  5
FB
331
13A
  5
13A
331
1F36
  5
1F40
331
1B0F
  5
1F7B
331
164D
  5
19DC
331
1B5
  5
20A
331
1F0
  5
151D
331
1B1
  5
206
331
1B0B
  5
1F77
331
1A94
  5
1F65
331
1649
  5
19D8
331
1645
  5
17E3
331
1B07
  5
1F73
331
376
  5
1666
331
1A90
  5
1B85
331
1641
  5
17DF
331
1B96
  5
1FA9
331
1B37
  5
1F8A
331
17E4
  5
1B09
331
1B8E
  5
1FA0
331
17E0
  5
1AF5
331
1B8A
  5
1F9D
331
1BE1
  5
1FAE
331
1FAC
  5
1F28
331
1F6D
  5
1AA
331
1FA8
  5
1F2D
331
1F69
  5
1A6
331
1FA4
  5
1F37
331
1F65
  5
1A2
331
1FA0
  5
1F3D
331
1F61
  5
19E
331
F7
  5
F7
331
136
  5
136
331
1F2E
  5
1F48
331
1EC
  5
1519
331
F3
  5
F3
331
132
  5
132
331
12E
  5
12E
331
1E8
  5
1148
331
1F2A
  5
1F54
331
1A9
  5
200
331
EF
  5
EF
331
151D
  5
17DD
331
1A5
  5
1FC
331
EB
  5
EB
331
12A
  5
12A
331
1E0
  5
1144
331
1519
  5
167A
331
1A1
  5
1F8
331
19F0
  5
1B45
331
2F6
  5
1662
331
1AEB
  5
1B7B
331
2F2
  5
165E
331
19EC
  5
1B41
331
19E8
  5
1B3A
331
1B82
  5
1F99
331
167C
  5
1AEC
331
1678
  5
1ACA
331
1B7A
  5
1F94
331
1674
  5
1AC3
331
1670
  5
1AAD
331
1F9C
  5
1F46
331
1F5D
  5
19A
331
1F98
  5
1F4D
331
1F59
  5
196
331
1F94
  5
1F4F
331
1F55
  5
192
331
1F90
  5
1F56
331
1F51
  5
18E
331
E7
  5
E7
331
126
  5
126
331
19D
  5
1F4
331
E3
  5
E3
331
122
  5
122
331
11E
  5
11E
331
199
  5
1F0
331
DF
  5
DF
331
1BDF
  5
1FAC
331
195
  5
1EC
331
11A
  5
11A
331
1149
  5
1677
331
191
  5
1E8
331
19E4
  5
1B26
331
222
  5
165B
331
1AC7
  5
1F6F
331
1145
  5
1673
331
19E0
  5
1B16
331
1AC3
  5
1F6B
331
20A
  5
1657
331
19DC
  5
1B10
331
19D8
  5
1B0C
331
1B76
  5
1F82
331
378
  5
1668
331
166C
  5
1A95
331
1668
  5
1A8F
331
1664
  5
19F3
331
1660
  5
19EF
331
1F8C
  5
1F58
331
1F4D
  5
18A
331
1F88
  5
1CD
331
1F84
  5
1C9
331
1F80
  5
1C5
  0
XRECORD
  5
1FBA
102
{ACAD_REACTORS
330
1FB8
102
}
330
1FB8
100
AcDbXrecord
280
     1
 70
     2
  0
XRECORD
  5
1FB9
102
{ACAD_REACTORS
330
1FB8
102
}
330
1FB8
100
AcDbXrecord
280
     1
 40
1.25
  0
XRECORD
  5
1FBB
102
{ACAD_REACTORS
330
1FB8
102
}
330
1FB8
100
AcDbXrecord
280
     1
 40
1.570796326794896
  0
LAYOUT
  5
6E
102
{ACAD_XDICTIONARY
360
1FEF
102
}
102
{ACAD_REACTORS
330
61
102
}
330
61
100
AcDbPlotSettings
  1

  2
none_device
  4
Letter_(8.50_x_11.00_Inches)
  6

 40
6.349999904632567
 41
6.349999904632567
 42
6.350006103515625
 43
6.350006103515625
 44
215.8999938964844
 45
279.3999938964844
 46
0.0
 47
0.0
 48
0.0
 49
0.0
140
0.0
141
0.0
142
1.0
143
57.02661521355429
 70
 11952
 72
     0
 73
     1
 74
     0
  7

 75
     0
147
0.0175356716553347
148
-3786.321495132875
149
3267.756625456823
100
AcDbLayout
  1
Model
 70
     1
 71
     0
 10
0.0
 20
0.0
 11
12.0
 21
9.0
 12
0.0
 22
0.0
 32
0.0
 14
0.0
 24
0.0
 34
0.0
 15
0.0
 25
0.0
 35
0.0
146
0.0
 13
0.0
 23
0.0
 33
0.0
 16
1.0
 26
0.0
 36
0.0
 17
0.0
 27
1.0
 37
0.0
 76
     0
330
6B
331
8B
1001
ACAD_PSEXT
1000
なし
1000
なし
1000
適切ではありません
1000
新しいプロッタ環境設定名を選択しない限り、レイアウトは印刷されません。
1070
     0
  0
LAYOUT
  5
6A
102
{ACAD_XDICTIONARY
360
1FED
102
}
102
{ACAD_REACTORS
330
61
102
}
330
61
100
AcDbPlotSettings
  1

  2
FX DP 205
  4

  6

 40
0.0
 41
0.0
 42
0.0
 43
0.0
 44
0.0
 45
0.0
 46
0.0
 47
0.0
 48
0.0
 49
0.0
140
0.0
141
0.0
142
1.0
143
1.0
 70
   688
 72
     0
 73
     0
 74
     5
  7

 75
    16
147
1.0
148
0.0
149
0.0
100
AcDbLayout
  1
レイアウト1
 70
     1
 71
     1
 10
0.0
 20
0.0
 11
12.0
 21
9.0
 12
0.0
 22
0.0
 32
0.0
 14
1.000000000000000E+20
 24
1.000000000000000E+20
 34
1.000000000000000E+20
 15
-1.000000000000000E+20
 25
-1.000000000000000E+20
 35
-1.000000000000000E+20
146
0.0
 13
0.0
 23
0.0
 33
0.0
 16
1.0
 26
0.0
 36
0.0
 17
0.0
 27
1.0
 37
0.0
 76
     0
330
67
  0
MATERIAL
  5
19
102
{ACAD_XDICTIONARY
360
1A
102
}
102
{ACAD_REACTORS
330
10
102
}
330
10
100
AcDbMaterial
  1
ByBlock
 72
     0
 43
0.0208333333333333
 43
0.0
 43
0.0
 43
0.0
 43
0.0
 43
0.0208333333333333
 43
0.0
 43
0.0
 43
0.0
 43
0.0
 43
1.0
 43
0.0
 43
0.0
 43
0.0
 43
0.0
 43
1.0
 77
     0
 47
0.0208333333333333
 47
0.0
 47
0.0
 47
0.0
 47
0.0
 47
0.0208333333333333
 47
0.0
 47
0.0
 47
0.0
 47
0.0
 47
1.0
 47
0.0
 47
0.0
 47
0.0
 47
0.0
 47
1.0
171
     0
 49
0.0208333333333333
 49
0.0
 49
0.0
 49
0.0
 49
0.0
 49
0.0208333333333333
 49
0.0
 49
0.0
 49
0.0
 49
0.0
 49
1.0
 49
0.0
 49
0.0
 49
0.0
 49
0.0
 49
1.0
175
     0
142
0.0208333333333333
142
0.0
142
0.0
142
0.0
142
0.0
142
0.0208333333333333
142
0.0
142
0.0
142
0.0
142
0.0
142
1.0
142
0.0
142
0.0
142
0.0
142
0.0
142
1.0
179
     0
144
0.0208333333333333
144
0.0
144
0.0
144
0.0
144
0.0
144
0.0208333333333333
144
0.0
144
0.0
144
0.0
144
0.0
144
1.0
144
0.0
144
0.0
144
0.0
144
0.0
144
1.0
147
0.0208333333333333
147
0.0
147
0.0
147
0.0
147
0.0
147
0.0208333333333333
147
0.0
147
0.0
147
0.0
147
0.0
147
1.0
147
0.0
147
0.0
147
0.0
147
0.0
147
1.0
  0
MATERIAL
  5
11
102
{ACAD_XDICTIONARY
360
12
102
}
102
{ACAD_REACTORS
330
10
102
}
330
10
100
AcDbMaterial
  1
ByLayer
 72
     0
 43
0.0208333333333333
 43
0.0
 43
0.0
 43
0.0
 43
0.0
 43
0.0208333333333333
 43
0.0
 43
0.0
 43
0.0
 43
0.0
 43
1.0
 43
0.0
 43
0.0
 43
0.0
 43
0.0
 43
1.0
 77
     0
 47
0.0208333333333333
 47
0.0
 47
0.0
 47
0.0
 47
0.0
 47
0.0208333333333333
 47
0.0
 47
0.0
 47
0.0
 47
0.0
 47
1.0
 47
0.0
 47
0.0
 47
0.0
 47
0.0
 47
1.0
171
     0
 49
0.0208333333333333
 49
0.0
 49
0.0
 49
0.0
 49
0.0
 49
0.0208333333333333
 49
0.0
 49
0.0
 49
0.0
 49
0.0
 49
1.0
 49
0.0
 49
0.0
 49
0.0
 49
0.0
 49
1.0
175
     0
142
0.0208333333333333
142
0.0
142
0.0
142
0.0
142
0.0
142
0.0208333333333333
142
0.0
142
0.0
142
0.0
142
0.0
142
1.0
142
0.0
142
0.0
142
0.0
142
0.0
142
1.0
179
     0
144
0.0208333333333333
144
0.0
144
0.0
144
0.0
144
0.0
144
0.0208333333333333
144
0.0
144
0.0
144
0.0
144
0.0
144
1.0
144
0.0
144
0.0
144
0.0
144
0.0
144
1.0
147
0.0208333333333333
147
0.0
147
0.0
147
0.0
147
0.0
147
0.0208333333333333
147
0.0
147
0.0
147
0.0
147
0.0
147
1.0
147
0.0
147
0.0
147
0.0
147
0.0
147
1.0
  0
MATERIAL
  5
21
102
{ACAD_XDICTIONARY
360
22
102
}
102
{ACAD_REACTORS
330
10
102
}
330
10
100
AcDbMaterial
  1
Global
 72
     0
 43
0.0208333333333333
 43
0.0
 43
0.0
 43
0.0
 43
0.0
 43
0.0208333333333333
 43
0.0
 43
0.0
 43
0.0
 43
0.0
 43
1.0
 43
0.0
 43
0.0
 43
0.0
 43
0.0
 43
1.0
 77
     0
 47
0.0208333333333333
 47
0.0
 47
0.0
 47
0.0
 47
0.0
 47
0.0208333333333333
 47
0.0
 47
0.0
 47
0.0
 47
0.0
 47
1.0
 47
0.0
 47
0.0
 47
0.0
 47
0.0
 47
1.0
171
     0
 49
0.0208333333333333
 49
0.0
 49
0.0
 49
0.0
 49
0.0
 49
0.0208333333333333
 49
0.0
 49
0.0
 49
0.0
 49
0.0
 49
1.0
 49
0.0
 49
0.0
 49
0.0
 49
0.0
 49
1.0
175
     0
142
0.0208333333333333
142
0.0
142
0.0
142
0.0
142
0.0
142
0.0208333333333333
142
0.0
142
0.0
142
0.0
142
0.0
142
1.0
142
0.0
142
0.0
142
0.0
142
0.0
142
1.0
179
     0
144
0.0208333333333333
144
0.0
144
0.0
144
0.0
144
0.0
144
0.0208333333333333
144
0.0
144
0.0
144
0.0
144
0.0
144
1.0
144
0.0
144
0.0
144
0.0
144
0.0
144
1.0
147
0.0208333333333333
147
0.0
147
0.0
147
0.0
147
0.0
147
0.0208333333333333
147
0.0
147
0.0
147
0.0
147
0.0
147
1.0
147
0.0
147
0.0
147
0.0
147
0.0
147
1.0
  0
MLEADERSTYLE
  5
66
102
{ACAD_REACTORS
330
65
102
}
330
65
100
AcDbMLeaderStyle
170
     2
171
     1
172
     0
 90
        2
 40
0.0
 41
0.0
173
     1
 91
-1056964608
340
5A
 92
       -2
290
     1
 42
0.09
291
     1
 43
0.36
  3
Standard
 44
0.18
300

342
55
174
     1
178
     6
175
     1
176
     0
 93
-1056964608
 45
0.18
292
     0
297
     0
 46
0.18
 94
-1056964608
 47
1.0
 49
1.0
140
1.0
293
     1
141
0.0
294
     1
177
     0
142
1.0
295
     0
296
     0
143
0.125
1001
ACAD_MLEADERVER
1070
     2
  0
MLINESTYLE
  5
5F
102
{ACAD_REACTORS
330
5E
102
}
330
5E
100
AcDbMlineStyle
  2
STANDARD
 70
     0
  3

 62
   256
 51
90.0
 52
90.0
 71
     2
 49
0.5
 62
   256
  6
BYLAYER
 49
-0.5
 62
   256
  6
BYLAYER
  0
ACDBPLACEHOLDER
  5
F
102
{ACAD_REACTORS
330
E
102
}
330
E
  0
SCALE
  5
43
102
{ACAD_REACTORS
330
42
102
}
330
42
100
AcDbScale
 70
     0
300
1:1
140
1.0
141
1.0
290
     1
  0
SCALE
  5
44
102
{ACAD_REACTORS
330
42
102
}
330
42
100
AcDbScale
 70
     0
300
1/128" = 1'-0"
140
0.0078125
141
12.0
290
     0
  0
SCALE
  5
45
102
{ACAD_REACTORS
330
42
102
}
330
42
100
AcDbScale
 70
     0
300
1/64" = 1'-0"
140
0.015625
141
12.0
290
     0
  0
SCALE
  5
46
102
{ACAD_REACTORS
330
42
102
}
330
42
100
AcDbScale
 70
     0
300
1/32" = 1'-0"
140
0.03125
141
12.0
290
     0
  0
SCALE
  5
47
102
{ACAD_REACTORS
330
42
102
}
330
42
100
AcDbScale
 70
     0
300
1/16" = 1'-0"
140
0.0625
141
12.0
290
     0
  0
SCALE
  5
48
102
{ACAD_REACTORS
330
42
102
}
330
42
100
AcDbScale
 70
     0
300
3/32" = 1'-0"
140
0.09375
141
12.0
290
     0
  0
SCALE
  5
49
102
{ACAD_REACTORS
330
42
102
}
330
42
100
AcDbScale
 70
     0
300
1/8" = 1'-0"
140
0.125
141
12.0
290
     0
  0
SCALE
  5
4A
102
{ACAD_REACTORS
330
42
102
}
330
42
100
AcDbScale
 70
     0
300
3/16" = 1'-0"
140
0.1875
141
12.0
290
     0
  0
SCALE
  5
4B
102
{ACAD_REACTORS
330
42
102
}
330
42
100
AcDbScale
 70
     0
300
1/4" = 1'-0"
140
0.25
141
12.0
290
     0
  0
SCALE
  5
4C
102
{ACAD_REACTORS
330
42
102
}
330
42
100
AcDbScale
 70
     0
300
3/8" = 1'-0"
140
0.375
141
12.0
290
     0
  0
SCALE
  5
4D
102
{ACAD_REACTORS
330
42
102
}
330
42
100
AcDbScale
 70
     0
300
1/2" = 1'-0"
140
0.5
141
12.0
290
     0
  0
SCALE
  5
4E
102
{ACAD_REACTORS
330
42
102
}
330
42
100
AcDbScale
 70
     0
300
3/4" = 1'-0"
140
0.75
141
12.0
290
     0
  0
SCALE
  5
4F
102
{ACAD_REACTORS
330
42
102
}
330
42
100
AcDbScale
 70
     0
300
1" = 1'-0"
140
1.0
141
12.0
290
     0
  0
SCALE
  5
50
102
{ACAD_REACTORS
330
42
102
}
330
42
100
AcDbScale
 70
     0
300
1-1/2" = 1'-0"
140
1.5
141
12.0
290
     0
  0
SCALE
  5
51
102
{ACAD_REACTORS
330
42
102
}
330
42
100
AcDbScale
 70
     0
300
3" = 1'-0"
140
3.0
141
12.0
290
     0
  0
SCALE
  5
52
102
{ACAD_REACTORS
330
42
102
}
330
42
100
AcDbScale
 70
     0
300
6" = 1'-0"
140
6.0
141
12.0
290
     0
  0
SCALE
  5
53
102
{ACAD_REACTORS
330
42
102
}
330
42
100
AcDbScale
 70
     0
300
1'-0" = 1'-0"
140
12.0
141
12.0
290
     0
  0
TABLESTYLE
  5
64
102
{ACAD_XDICTIONARY
360
5AC
102
}
102
{ACAD_REACTORS
330
63
102
}
330
63
100
AcDbTableStyle
  3
Standard
 70
     0
 71
     0
 40
0.06
 41
0.06
280
     0
281
     0
  7
STANDARD
140
0.18
170
     2
 62
     0
 63
     7
283
     0
274
    -2
284
     1
 64
     0
275
    -2
285
     1
 65
     0
276
    -2
286
     1
 66
     0
277
    -2
287
     1
 67
     0
278
    -2
288
     1
 68
     0
279
    -2
289
     1
 69
     0
  7
STANDARD
140
0.25
170
     5
 62
     0
 63
     7
283
     0
274
    -2
284
     1
 64
     0
275
    -2
285
     1
 65
     0
276
    -2
286
     1
 66
     0
277
    -2
287
     1
 67
     0
278
    -2
288
     1
 68
     0
279
    -2
289
     1
 69
     0
  7
STANDARD
140
0.18
170
     5
 62
     0
 63
     7
283
     0
274
    -2
284
     1
 64
     0
275
    -2
285
     1
 65
     0
276
    -2
286
     1
 66
     0
277
    -2
287
     1
 67
     0
278
    -2
288
     1
 68
     0
279
    -2
289
     1
 69
     0
  0
VISUALSTYLE
  5
2F
102
{ACAD_XDICTIONARY
360
1FC6
102
}
102
{ACAD_REACTORS
330
29
102
}
330
29
100
AcDbVisualStyle
  2

 70
     4
 71
     0
 72
     2
 73
     0
 90
        0
 40
-0.6
 41
-30.0
 62
     5
 63
     7
 74
     1
 91
        4
 64
     7
 65
   257
 75
     1
175
     1
 42
1.0
 92
        0
 66
   257
 43
1.0
 76
     1
 77
     6
 78
     2
 67
     7
 79
     5
170
     0
171
     0
290
     0
174
     0
 93
        1
 44
0.0
173
     0
291
     0
 45
0.0
1001
ACAD
1000
AcDbSavedByObjectVersion
1070
     0
  0
VISUALSTYLE
  5
41E
102
{ACAD_XDICTIONARY
360
1FF1
102
}
102
{ACAD_REACTORS
330
29
102
}
330
29
100
AcDbVisualStyle
  2

 70
     5
 71
     0
 72
     2
 73
     1
 90
        0
 40
-0.6
 41
-30.0
 62
     5
 63
     7
 74
     1
 91
        4
 64
     7
 65
   257
 75
     1
175
     1
 42
1.0
 92
        0
 66
   257
 43
1.0
 76
     1
 77
     6
 78
     2
 67
     7
 79
     5
170
     0
171
     0
290
     0
174
     0
 93
        1
 44
0.0
173
     0
291
     0
 45
0.0
1001
ACAD
1000
AcDbSavedByObjectVersion
1070
     0
  0
VISUALSTYLE
  5
2E
102
{ACAD_XDICTIONARY
360
1FC4
102
}
102
{ACAD_REACTORS
330
29
102
}
330
29
100
AcDbVisualStyle
  2

 70
     7
 71
     1
 72
     0
 73
     1
 90
        0
 40
-0.6
 41
-30.0
 62
     5
 63
     7
 74
     0
 91
        4
 64
     7
 65
   257
 75
     1
175
     1
 42
1.0
 92
        8
 66
     7
 43
1.0
 76
     1
 77
     6
 78
     2
 67
     7
 79
     5
170
     0
171
     0
290
     0
174
     0
 93
        1
 44
0.0
173
     0
291
     1
 45
0.0
1001
ACAD
1000
AcDbSavedByObjectVersion
1070
     0
  0
VISUALSTYLE
  5
35
102
{ACAD_XDICTIONARY
360
1FD2
102
}
102
{ACAD_REACTORS
330
29
102
}
330
29
100
AcDbVisualStyle
  2

 70
    12
 71
     2
 72
     2
 73
     0
 90
        0
 40
-0.6
 41
-30.0
 62
     5
 63
     7
 74
     1
 91
        4
 64
     7
 65
   257
 75
     1
175
     1
 42
1.0
 92
        8
 66
     7
 43
1.0
 76
     1
 77
     6
 78
     2
 67
     7
 79
     5
170
     0
171
     0
290
     0
174
     0
 93
        1
 44
50.0
173
     0
291
     1
 45
0.0
1001
ACAD
1000
AcDbSavedByObjectVersion
1070
     0
  0
VISUALSTYLE
  5
39
102
{ACAD_XDICTIONARY
360
1FDA
102
}
102
{ACAD_REACTORS
330
29
102
}
330
29
100
AcDbVisualStyle
  2

 70
    16
 71
     2
 72
     2
 73
     3
 90
        0
 40
-0.6
 41
-30.0
 62
     5
 63
     8
 74
     1
 91
        4
 64
     7
 65
   257
 75
     1
175
     1
 42
1.0
 92
        8
 66
     8
 43
1.0
 76
     1
 77
     6
 78
     2
 67
     7
 79
     5
170
     0
171
     0
290
     0
174
     0
 93
        1
 44
0.0
173
     0
291
     1
 45
0.0
1001
ACAD
1000
AcDbSavedByObjectVersion
1070
     0
  0
VISUALSTYLE
  5
32
102
{ACAD_XDICTIONARY
360
1FCC
102
}
102
{ACAD_REACTORS
330
29
102
}
330
29
100
AcDbVisualStyle
  2

 70
     9
 71
     3
 72
     2
 73
     0
 90
        0
 40
-0.6
 41
-30.0
 62
     5
 63
     7
 74
     2
 91
        2
 64
     7
 65
   257
 75
     1
175
     1
 42
179.0
 92
        8
 66
     7
 43
1.0
 76
     1
 77
     6
 78
     2
 67
     7
 79
     3
170
     0
171
     0
290
     0
174
     0
 93
        1
 44
0.0
173
     0
291
     0
 45
0.0
1001
ACAD
1000
AcDbSavedByObjectVersion
1070
     0
  0
VISUALSTYLE
  5
34
102
{ACAD_XDICTIONARY
360
1FD0
102
}
102
{ACAD_REACTORS
330
29
102
}
330
29
100
AcDbVisualStyle
  2

 70
    11
 71
     2
 72
     2
 73
     0
 90
        0
 40
-0.6
 41
-30.0
 62
     5
 63
     7
 74
     1
 91
        4
 64
     7
 65
   257
 75
     1
175
     1
 42
1.0
 92
        8
 66
     7
 43
1.0
 76
     1
 77
     6
 78
     2
 67
     7
 79
     5
170
     0
171
     0
290
     0
174
     0
 93
        1
 44
-50.0
173
     0
291
     1
 45
0.0
1001
ACAD
1000
AcDbSavedByObjectVersion
1070
     0
  0
VISUALSTYLE
  5
41
102
{ACAD_XDICTIONARY
360
1FEA
102
}
102
{ACAD_REACTORS
330
29
102
}
330
29
100
AcDbVisualStyle
  2

 70
    22
 71
     2
 72
     2
 73
     0
 90
        0
 40
-0.6
 41
-30.0
 62
     5
 63
     7
 74
     1
 91
        4
 64
     7
 65
   257
 75
     1
175
     1
 42
1.0
 92
        8
 66
     7
 43
1.0
 76
     1
 77
     6
 78
     2
 67
     7
 79
     5
170
     0
171
     0
290
     0
174
     0
 93
        1
 44
0.0
173
     0
291
     1
 45
0.0
1001
ACAD
1000
AcDbSavedByObjectVersion
1070
     0
  0
VISUALSTYLE
  5
38
102
{ACAD_XDICTIONARY
360
1FD8
102
}
102
{ACAD_REACTORS
330
29
102
}
330
29
100
AcDbVisualStyle
  2

 70
    15
 71
     2
 72
     2
 73
     0
 90
        0
 40
-0.6
 41
-30.0
 62
     5
 63
     7
 74
     1
 91
        4
 64
     7
 65
   257
 75
     1
175
     1
 42
1.0
 92
        8
 66
     7
 43
1.0
 76
     1
 77
     6
 78
     2
 67
     7
 79
     5
170
     0
171
     0
290
     0
174
     0
 93
        1
 44
0.0
173
     0
291
     1
 45
0.0
1001
ACAD
1000
AcDbSavedByObjectVersion
1070
     0
  0
VISUALSTYLE
  5
2A
102
{ACAD_XDICTIONARY
360
1FBC
102
}
102
{ACAD_REACTORS
330
29
102
}
330
29
100
AcDbVisualStyle
  2

 70
     0
 71
     2
 72
     1
 73
     1
 90
        2
 40
-0.6
 41
30.0
 62
     5
 63
     7
 74
     0
 91
        0
 64
     7
 65
   257
 75
     1
175
     1
 42
1.0
 92
        8
 66
     7
 43
1.0
 76
     1
 77
     6
 78
     2
 67
     7
 79
     5
170
     0
171
     0
290
     0
174
     0
 93
       13
 44
0.0
173
     0
291
     1
 45
0.0
1001
ACAD
1000
AcDbSavedByObjectVersion
1070
     0
  0
VISUALSTYLE
  5
2B
102
{ACAD_XDICTIONARY
360
1FBE
102
}
102
{ACAD_REACTORS
330
29
102
}
330
29
100
AcDbVisualStyle
  2

 70
     1
 71
     2
 72
     1
 73
     1
 90
        2
 40
-0.6
 41
30.0
 62
     5
 63
     7
 74
     1
 91
        0
 64
     7
 65
   257
 75
     1
175
     1
 42
1.0
 92
        0
 66
   257
 43
1.0
 76
     1
 77
     6
 78
     2
 67
     7
 79
     5
170
     0
171
     0
290
     0
174
     0
 93
       13
 44
0.0
173
     0
291
     1
 45
0.0
1001
ACAD
1000
AcDbSavedByObjectVersion
1070
     0
  0
VISUALSTYLE
  5
2C
102
{ACAD_XDICTIONARY
360
1FC0
102
}
102
{ACAD_REACTORS
330
29
102
}
330
29
100
AcDbVisualStyle
  2

 70
     2
 71
     2
 72
     2
 73
     1
 90
        2
 40
-0.6
 41
30.0
 62
     5
 63
     7
 74
     0
 91
        0
 64
     7
 65
   257
 75
     1
175
     1
 42
1.0
 92
        0
 66
     7
 43
1.0
 76
     1
 77
     6
 78
     2
 67
     7
 79
     5
170
     0
171
     0
290
     0
174
     0
 93
       13
 44
0.0
173
     0
291
     1
 45
0.0
1001
ACAD
1000
AcDbSavedByObjectVersion
1070
     0
  0
VISUALSTYLE
  5
2D
102
{ACAD_XDICTIONARY
360
1FC2
102
}
102
{ACAD_REACTORS
330
29
102
}
330
29
100
AcDbVisualStyle
  2

 70
     3
 71
     2
 72
     2
 73
     1
 90
        2
 40
-0.6
 41
30.0
 62
     5
 63
     7
 74
     1
 91
        0
 64
     7
 65
   257
 75
     1
175
     1
 42
1.0
 92
        0
 66
   257
 43
1.0
 76
     1
 77
     6
 78
     2
 67
     7
 79
     5
170
     0
171
     0
290
     0
174
     0
 93
       13
 44
0.0
173
     0
291
     1
 45
0.0
1001
ACAD
1000
AcDbSavedByObjectVersion
1070
     0
  0
VISUALSTYLE
  5
31
102
{ACAD_XDICTIONARY
360
1FCA
102
}
102
{ACAD_REACTORS
330
29
102
}
330
29
100
AcDbVisualStyle
  2

 70
     6
 71
     1
 72
     2
 73
     2
 90
        0
 40
-0.6
 41
-30.0
 62
     5
 63
     7
 74
     2
 91
        2
 64
     7
 65
   257
 75
     2
175
     1
 42
40.0
 92
        0
 66
   257
 43
1.0
 76
     1
 77
     6
 78
     2
 67
     7
 79
     3
170
     0
171
     0
290
     0
174
     0
 93
        1
 44
0.0
173
     0
291
     0
 45
0.0
1001
ACAD
1000
AcDbSavedByObjectVersion
1070
     0
  0
VISUALSTYLE
  5
3F
102
{ACAD_XDICTIONARY
360
1FE6
102
}
102
{ACAD_REACTORS
330
29
102
}
330
29
100
AcDbVisualStyle
  2

 70
    20
 71
     2
 72
     2
 73
     0
 90
        0
 40
-0.6
 41
-30.0
 62
     5
 63
     7
 74
     1
 91
        4
 64
     7
 65
   257
 75
     1
175
     1
 42
1.0
 92
       10
 66
     7
 43
1.0
 76
     1
 77
     6
 78
     2
 67
     7
 79
     5
170
     0
171
     0
290
     0
174
     0
 93
        1
 44
0.0
173
     0
291
     1
 45
0.0
1001
ACAD
1000
AcDbSavedByObjectVersion
1070
     0
  0
VISUALSTYLE
  5
37
102
{ACAD_XDICTIONARY
360
1FD6
102
}
102
{ACAD_REACTORS
330
29
102
}
330
29
100
AcDbVisualStyle
  2

 70
    14
 71
     2
 72
     2
 73
     0
 90
        0
 40
-0.6
 41
-30.0
 62
     5
 63
     7
 74
     1
 91
        4
 64
     7
 65
   257
 75
     7
175
     7
 42
1.0
 92
        8
 66
     7
 43
1.0
 76
     1
 77
     6
 78
     2
 67
     7
 79
     5
170
     0
171
     0
290
     0
174
     0
 93
        1
 44
0.0
173
     0
291
     1
 45
0.0
1001
ACAD
1000
AcDbSavedByObjectVersion
1070
     0
  0
VISUALSTYLE
  5
40
102
{ACAD_XDICTIONARY
360
1FE8
102
}
102
{ACAD_REACTORS
330
29
102
}
330
29
100
AcDbVisualStyle
  2

 70
    21
 71
     2
 72
     2
 73
     0
 90
        0
 40
-0.6
 41
-30.0
 62
     5
 63
     7
 74
     1
 91
        4
 64
     7
 65
   257
 75
     1
175
     1
 42
1.0
 92
        9
 66
     7
 43
1.0
 76
     1
 77
     6
 78
     2
 67
     7
 79
     5
170
     0
171
     0
290
     0
174
     0
 93
        1
 44
0.0
173
     0
291
     1
 45
0.0
1001
ACAD
1000
AcDbSavedByObjectVersion
1070
     0
  0
VISUALSTYLE
  5
33
102
{ACAD_XDICTIONARY
360
1FCE
102
}
102
{ACAD_REACTORS
330
29
102
}
330
29
100
AcDbVisualStyle
  2

 70
     8
 71
     2
 72
     3
 73
     0
 90
        2
 40
-0.6
 41
30.0
 62
     5
 63
     7
 74
     0
 91
        0
 64
     7
 65
   257
 75
     1
175
     1
 42
1.0
 92
        8
 66
   257
 43
1.0
 76
     1
 77
     6
 78
     2
 67
     7
 79
     3
170
     0
171
     0
290
     0
174
     0
 93
       13
 44
0.0
173
     0
291
     0
 45
0.0
1001
ACAD
1000
AcDbSavedByObjectVersion
1070
     0
  0
VISUALSTYLE
  5
3E
102
{ACAD_XDICTIONARY
360
1FE4
102
}
102
{ACAD_REACTORS
330
29
102
}
330
29
100
AcDbVisualStyle
  2

 70
    27
 71
     2
 72
     2
 73
     1
 90
        2
 40
-0.6
 41
30.0
 62
     5
 63
     7
 74
     0
 91
        4
 64
     7
 65
   257
 75
     1
175
     1
 42
1.0
 92
        8
 66
   257
 43
1.0
 76
     1
 77
     6
 78
     2
 67
     8
 79
     3
170
     0
171
     0
290
     0
174
     0
 93
        5
 44
0.0
173
     0
291
     0
 45
0.0
1001
ACAD
1000
AcDbSavedByObjectVersion
1070
     0
  0
VISUALSTYLE
  5
3D
102
{ACAD_XDICTIONARY
360
1FE2
102
}
102
{ACAD_REACTORS
330
29
102
}
330
29
100
AcDbVisualStyle
  2

 70
    26
 71
     2
 72
     2
 73
     1
 90
        2
 40
-0.6
 41
30.0
 62
     5
 63
     7
 74
     1
 91
       10
 64
     7
 65
   257
 75
     2
175
     1
 42
1.0
 92
        8
 66
   257
 43
1.0
 76
     1
 77
     6
 78
     2
 67
     7
 79
     3
170
     0
171
     0
290
     0
174
     0
 93
        5
 44
0.0
173
     0
291
     0
 45
0.0
1001
ACAD
1000
AcDbSavedByObjectVersion
1070
     0
  0
VISUALSTYLE
  5
3A
102
{ACAD_XDICTIONARY
360
1FDC
102
}
102
{ACAD_REACTORS
330
29
102
}
330
29
100
AcDbVisualStyle
  2

 70
    23
 71
     2
 72
     2
 73
     3
 90
        0
 40
-0.6
 41
-30.0
 62
     5
 63
     7
 74
     2
 91
        2
 64
     7
 65
     7
 75
     1
175
     1
 42
40.0
 92
        8
 66
     7
 43
1.0
 76
     1
 77
     6
 78
     2
 67
     7
 79
     3
170
     0
171
     0
290
     0
174
     0
 93
        1
 44
0.0
173
     0
291
     0
 45
0.0
1001
ACAD
1000
AcDbSavedByObjectVersion
1070
     0
  0
VISUALSTYLE
  5
3B
102
{ACAD_XDICTIONARY
360
1FDE
102
}
102
{ACAD_REACTORS
330
29
102
}
330
29
100
AcDbVisualStyle
  2

 70
    24
 71
     1
 72
     2
 73
     2
 90
        0
 40
-0.6
 41
-30.0
 62
     5
 63
     7
 74
     2
 91
        2
 64
     7
 65
     7
 75
     1
175
     1
 42
40.0
 92
       11
 66
     7
 43
1.0
 76
     1
 77
     6
 78
     2
 67
     7
 79
     6
170
     0
171
     0
290
     0
174
     0
 93
        1
 44
0.0
173
     0
291
     0
 45
0.0
1001
ACAD
1000
AcDbSavedByObjectVersion
1070
     0
  0
VISUALSTYLE
  5
36
102
{ACAD_XDICTIONARY
360
1FD4
102
}
102
{ACAD_REACTORS
330
29
102
}
330
29
100
AcDbVisualStyle
  2

 70
    13
 71
     2
 72
     2
 73
     0
 90
        0
 40
-0.6
 41
-30.0
 62
     5
 63
     7
 74
     1
 91
        4
 64
     7
 65
   257
 75
     1
175
     1
 42
1.0
 92
       12
 66
     7
 43
1.0
 76
     1
 77
     6
 78
     2
 67
     7
 79
     5
170
     0
171
     0
290
     0
174
     0
 93
        1
 44
0.0
173
     0
291
     1
 45
0.0
1001
ACAD
1000
AcDbSavedByObjectVersion
1070
     0
  0
VISUALSTYLE
  5
30
102
{ACAD_XDICTIONARY
360
1FC8
102
}
102
{ACAD_REACTORS
330
29
102
}
330
29
100
AcDbVisualStyle
  2

 70
     5
 71
     0
 72
     2
 73
     0
 90
        0
 40
-0.6
 41
-30.0
 62
     5
 63
     7
 74
     1
 91
        4
 64
     7
 65
   257
 75
     1
175
     1
 42
1.0
 92
        0
 66
   257
 43
1.0
 76
     1
 77
     6
 78
     2
 67
     7
 79
     3
170
     0
171
     0
290
     0
174
     0
 93
        1
 44
0.0
173
     0
291
     0
 45
0.0
1001
ACAD
1000
AcDbSavedByObjectVersion
1070
     0
  0
VISUALSTYLE
  5
3C
102
{ACAD_XDICTIONARY
360
1FE0
102
}
102
{ACAD_REACTORS
330
29
102
}
330
29
100
AcDbVisualStyle
  2

 70
    25
 71
     2
 72
     2
 73
     1
 90
        1
 40
0.5
 41
-30.0
 62
     5
 63
     7
 74
     1
 91
        0
 64
     7
 65
   257
 75
     1
175
     1
 42
1.0
 92
        8
 66
     7
 43
1.0
 76
     1
 77
     6
 78
     2
 67
     7
 79
     3
170
     0
171
     0
290
     0
174
     0
 93
       13
 44
0.0
173
     0
291
     0
 45
0.0
1001
ACAD
1000
AcDbSavedByObjectVersion
1070
     0
  0
DICTIONARYVAR
  5
5A7
102
{ACAD_REACTORS
330
5A4
102
}
330
5A4
100
DictionaryVariables
280
     0
  1
1:1
  0
DICTIONARYVAR
  5
5A6
102
{ACAD_REACTORS
330
5A4
102
}
330
5A4
100
DictionaryVariables
280
     0
  1
STANDARD
  0
DICTIONARYVAR
  5
5A5
102
{ACAD_REACTORS
330
5A4
102
}
330
5A4
100
DictionaryVariables
280
     0
  1
STANDARD
  0
DICTIONARYVAR
  5
5AA
102
{ACAD_REACTORS
330
5A4
102
}
330
5A4
100
DictionaryVariables
280
     0
  1
1
  0
DICTIONARYVAR
  5
5A9
102
{ACAD_REACTORS
330
5A4
102
}
330
5A4
100
DictionaryVariables
280
     0
  1
0
  0
DICTIONARYVAR
  5
5A8
102
{ACAD_REACTORS
330
5A4
102
}
330
5A4
100
DictionaryVariables
280
     0
  1
127
  0
DICTIONARYVAR
  5
1EE9
102
{ACAD_REACTORS
330
5A4
102
}
330
5A4
100
DictionaryVariables
280
     0
  1
2
  0
DICTIONARY
  5
1FEF
330
6E
100
AcDbDictionary
280
     1
281
     1
  3
ACAD_XREC_ROUNDTRIP
360
1FF0
  0
DICTIONARY
  5
1FED
330
6A
100
AcDbDictionary
280
     1
281
     1
  3
ACAD_XREC_ROUNDTRIP
360
1FEE
  0
DICTIONARY
  5
1A
330
19
100
AcDbDictionary
280
     1
281
     1
  3
ACAD_XREC_ROUNDTRIP
360
5B5
  3
BUMPTILE
360
1C
  3
DIFFUSETILE
360
1B
  3
OPACITYTILE
360
1F
  3
REFLECTIONTILE
360
1E
  3
REFRACTIONTILE
360
20
  3
SPECULARTILE
360
1D
  0
DICTIONARY
  5
12
330
11
100
AcDbDictionary
280
     1
281
     1
  3
ACAD_XREC_ROUNDTRIP
360
5B4
  3
BUMPTILE
360
14
  3
DIFFUSETILE
360
13
  3
OPACITYTILE
360
17
  3
REFLECTIONTILE
360
16
  3
REFRACTIONTILE
360
18
  3
SPECULARTILE
360
15
  0
DICTIONARY
  5
22
330
21
100
AcDbDictionary
280
     1
281
     1
  3
ACAD_XREC_ROUNDTRIP
360
5B6
  3
BUMPTILE
360
24
  3
DIFFUSETILE
360
23
  3
OPACITYTILE
360
27
  3
REFLECTIONTILE
360
26
  3
REFRACTIONTILE
360
28
  3
SPECULARTILE
360
25
  0
DICTIONARY
  5
5AC
330
64
100
AcDbDictionary
280
     1
281
     1
  3
ACAD_ROUNDTRIP_2008_TABLESTYLE_CELLSTYLEMAP
360
1FB5
  3
ACAD_XREC_ROUNDTRIP
360
1FEC
  0
DICTIONARY
  5
1FC6
330
2F
100
AcDbDictionary
280
     1
281
     1
  3
ACAD_XREC_ROUNDTRIP
360
1FC7
  0
DICTIONARY
  5
1FF1
330
41E
100
AcDbDictionary
280
     1
281
     1
  3
ACAD_XREC_ROUNDTRIP
360
1FF2
  0
DICTIONARY
  5
1FC4
330
2E
100
AcDbDictionary
280
     1
281
     1
  3
ACAD_XREC_ROUNDTRIP
360
1FC5
  0
DICTIONARY
  5
1FD2
330
35
100
AcDbDictionary
280
     1
281
     1
  3
ACAD_XREC_ROUNDTRIP
360
1FD3
  0
DICTIONARY
  5
1FDA
330
39
100
AcDbDictionary
280
     1
281
     1
  3
ACAD_XREC_ROUNDTRIP
360
1FDB
  0
DICTIONARY
  5
1FCC
330
32
100
AcDbDictionary
280
     1
281
     1
  3
ACAD_XREC_ROUNDTRIP
360
1FCD
  0
DICTIONARY
  5
1FD0
330
34
100
AcDbDictionary
280
     1
281
     1
  3
ACAD_XREC_ROUNDTRIP
360
1FD1
  0
DICTIONARY
  5
1FEA
330
41
100
AcDbDictionary
280
     1
281
     1
  3
ACAD_XREC_ROUNDTRIP
360
1FEB
  0
DICTIONARY
  5
1FD8
330
38
100
AcDbDictionary
280
     1
281
     1
  3
ACAD_XREC_ROUNDTRIP
360
1FD9
  0
DICTIONARY
  5
1FBC
330
2A
100
AcDbDictionary
280
     1
281
     1
  3
ACAD_XREC_ROUNDTRIP
360
1FBD
  0
DICTIONARY
  5
1FBE
330
2B
100
AcDbDictionary
280
     1
281
     1
  3
ACAD_XREC_ROUNDTRIP
360
1FBF
  0
DICTIONARY
  5
1FC0
330
2C
100
AcDbDictionary
280
     1
281
     1
  3
ACAD_XREC_ROUNDTRIP
360
1FC1
  0
DICTIONARY
  5
1FC2
330
2D
100
AcDbDictionary
280
     1
281
     1
  3
ACAD_XREC_ROUNDTRIP
360
1FC3
  0
DICTIONARY
  5
1FCA
330
31
100
AcDbDictionary
280
     1
281
     1
  3
ACAD_XREC_ROUNDTRIP
360
1FCB
  0
DICTIONARY
  5
1FE6
330
3F
100
AcDbDictionary
280
     1
281
     1
  3
ACAD_XREC_ROUNDTRIP
360
1FE7
  0
DICTIONARY
  5
1FD6
330
37
100
AcDbDictionary
280
     1
281
     1
  3
ACAD_XREC_ROUNDTRIP
360
1FD7
  0
DICTIONARY
  5
1FE8
330
40
100
AcDbDictionary
280
     1
281
     1
  3
ACAD_XREC_ROUNDTRIP
360
1FE9
  0
DICTIONARY
  5
1FCE
330
33
100
AcDbDictionary
280
     1
281
     1
  3
ACAD_XREC_ROUNDTRIP
360
1FCF
  0
DICTIONARY
  5
1FE4
330
3E
100
AcDbDictionary
280
     1
281
     1
  3
ACAD_XREC_ROUNDTRIP
360
1FE5
  0
DICTIONARY
  5
1FE2
330
3D
100
AcDbDictionary
280
     1
281
     1
  3
ACAD_XREC_ROUNDTRIP
360
1FE3
  0
DICTIONARY
  5
1FDC
330
3A
100
AcDbDictionary
280
     1
281
     1
  3
ACAD_XREC_ROUNDTRIP
360
1FDD
  0
DICTIONARY
  5
1FDE
330
3B
100
AcDbDictionary
280
     1
281
     1
  3
ACAD_XREC_ROUNDTRIP
360
1FDF
  0
DICTIONARY
  5
1FD4
330
36
100
AcDbDictionary
280
     1
281
     1
  3
ACAD_XREC_ROUNDTRIP
360
1FD5
  0
DICTIONARY
  5
1FC8
330
30
100
AcDbDictionary
280
     1
281
     1
  3
ACAD_XREC_ROUNDTRIP
360
1FC9
  0
DICTIONARY
  5
1FE0
330
3C
100
AcDbDictionary
280
     1
281
     1
  3
ACAD_XREC_ROUNDTRIP
360
1FE1
  0
XRECORD
  5
1FF0
102
{ACAD_REACTORS
330
1FEF
102
}
330
1FEF
100
AcDbXrecord
280
     1
102
SHADEPLOT
 70
     0
102
SHADEPLOTRESLEVEL
 70
     2
102
SHADEPLOTCUSTOMDPI
 70
   300
  0
XRECORD
  5
1FEE
102
{ACAD_REACTORS
330
1FED
102
}
330
1FED
100
AcDbXrecord
280
     1
102
SHADEPLOT
 70
     0
102
SHADEPLOTRESLEVEL
 70
     2
102
SHADEPLOTCUSTOMDPI
 70
   300
  0
XRECORD
  5
5B5
102
{ACAD_REACTORS
330
1A
102
}
330
1A
100
AcDbXrecord
280
     1
102
MATERIAL
148
0.0
149
0.0
149
0.0
 93
        0
 94
      127
282
     0
 72
     0
 77
     0
171
     0
175
     0
179
     0
273
     0
  0
XRECORD
  5
1C
102
{ACAD_REACTORS
330
1A
102
}
330
1A
100
AcDbXrecord
280
     1
270
     1
271
     1
  0
XRECORD
  5
1B
102
{ACAD_REACTORS
330
1A
102
}
330
1A
100
AcDbXrecord
280
     1
270
     1
271
     1
  0
XRECORD
  5
1F
102
{ACAD_REACTORS
330
1A
102
}
330
1A
100
AcDbXrecord
280
     1
270
     1
271
     1
  0
XRECORD
  5
1E
102
{ACAD_REACTORS
330
1A
102
}
330
1A
100
AcDbXrecord
280
     1
270
     1
271
     1
  0
XRECORD
  5
20
102
{ACAD_REACTORS
330
1A
102
}
330
1A
100
AcDbXrecord
280
     1
270
     1
271
     1
  0
XRECORD
  5
1D
102
{ACAD_REACTORS
330
1A
102
}
330
1A
100
AcDbXrecord
280
     1
270
     1
271
     1
  0
XRECORD
  5
5B4
102
{ACAD_REACTORS
330
12
102
}
330
12
100
AcDbXrecord
280
     1
102
MATERIAL
148
0.0
149
0.0
149
0.0
 93
        0
 94
      127
282
     0
 72
     0
 77
     0
171
     0
175
     0
179
     0
273
     0
  0
XRECORD
  5
14
102
{ACAD_REACTORS
330
12
102
}
330
12
100
AcDbXrecord
280
     1
270
     1
271
     1
  0
XRECORD
  5
13
102
{ACAD_REACTORS
330
12
102
}
330
12
100
AcDbXrecord
280
     1
270
     1
271
     1
  0
XRECORD
  5
17
102
{ACAD_REACTORS
330
12
102
}
330
12
100
AcDbXrecord
280
     1
270
     1
271
     1
  0
XRECORD
  5
16
102
{ACAD_REACTORS
330
12
102
}
330
12
100
AcDbXrecord
280
     1
270
     1
271
     1
  0
XRECORD
  5
18
102
{ACAD_REACTORS
330
12
102
}
330
12
100
AcDbXrecord
280
     1
270
     1
271
     1
  0
XRECORD
  5
15
102
{ACAD_REACTORS
330
12
102
}
330
12
100
AcDbXrecord
280
     1
270
     1
271
     1
  0
XRECORD
  5
5B6
102
{ACAD_REACTORS
330
22
102
}
330
22
100
AcDbXrecord
280
     1
102
MATERIAL
148
0.0
149
0.0
149
0.0
 93
        0
 94
      127
282
     0
 72
     0
 77
     0
171
     0
175
     0
179
     0
273
     0
  0
XRECORD
  5
24
102
{ACAD_REACTORS
330
22
102
}
330
22
100
AcDbXrecord
280
     1
270
     1
271
     1
  0
XRECORD
  5
23
102
{ACAD_REACTORS
330
22
102
}
330
22
100
AcDbXrecord
280
     1
270
     1
271
     1
  0
XRECORD
  5
27
102
{ACAD_REACTORS
330
22
102
}
330
22
100
AcDbXrecord
280
     1
270
     1
271
     1
  0
XRECORD
  5
26
102
{ACAD_REACTORS
330
22
102
}
330
22
100
AcDbXrecord
280
     1
270
     1
271
     1
  0
XRECORD
  5
28
102
{ACAD_REACTORS
330
22
102
}
330
22
100
AcDbXrecord
280
     1
270
     1
271
     1
  0
XRECORD
  5
25
102
{ACAD_REACTORS
330
22
102
}
330
22
100
AcDbXrecord
280
     1
270
     1
271
     1
  0
CELLSTYLEMAP
  5
1FB5
102
{ACAD_REACTORS
330
5AC
102
}
330
5AC
100
AcDbCellStyleMap
 90
        3
300
CELLSTYLE
  1
TABLEFORMAT_BEGIN
 90
        5
170
     1
 91
        0
 92
    32768
 62
   257
 93
        1
300
CONTENTFORMAT
  1
CONTENTFORMAT_BEGIN
 90
        0
 91
        0
 92
      512
 93
        0
300

 40
0.0
140
1.0
 94
        5
 62
     0
340
55
144
0.25
309
CONTENTFORMAT_END
171
     1
301
MARGIN
  1
CELLMARGIN_BEGIN
 40
0.06
 40
0.06
 40
0.06
 40
0.06
 40
0.18
 40
0.18
309
CELLMARGIN_END
 94
        6
 95
        1
302
GRIDFORMAT
  1
GRIDFORMAT_BEGIN
 90
        0
 91
        1
 62
     0
 92
       -2
340
0
 93
        0
 40
0.045
309
GRIDFORMAT_END
 95
        2
302
GRIDFORMAT
  1
GRIDFORMAT_BEGIN
 90
        0
 91
        1
 62
     0
 92
       -2
340
0
 93
        0
 40
0.045
309
GRIDFORMAT_END
 95
        4
302
GRIDFORMAT
  1
GRIDFORMAT_BEGIN
 90
        0
 91
        1
 62
     0
 92
       -2
340
0
 93
        0
 40
0.045
309
GRIDFORMAT_END
 95
        8
302
GRIDFORMAT
  1
GRIDFORMAT_BEGIN
 90
        0
 91
        1
 62
     0
 92
       -2
340
0
 93
        0
 40
0.045
309
GRIDFORMAT_END
 95
       16
302
GRIDFORMAT
  1
GRIDFORMAT_BEGIN
 90
        0
 91
        1
 62
     0
 92
       -2
340
0
 93
        0
 40
0.045
309
GRIDFORMAT_END
 95
       32
302
GRIDFORMAT
  1
GRIDFORMAT_BEGIN
 90
        0
 91
        1
 62
     0
 92
       -2
340
0
 93
        0
 40
0.045
309
GRIDFORMAT_END
309
TABLEFORMAT_END
  1
CELLSTYLE_BEGIN
 90
        1
 91
        1
300
_TITLE
309
CELLSTYLE_END
300
CELLSTYLE
  1
TABLEFORMAT_BEGIN
 90
        5
170
     1
 91
        0
 92
        0
 62
   257
 93
        1
300
CONTENTFORMAT
  1
CONTENTFORMAT_BEGIN
 90
        0
 91
        0
 92
      512
 93
        0
300

 40
0.0
140
1.0
 94
        5
 62
     0
340
55
144
0.18
309
CONTENTFORMAT_END
171
     1
301
MARGIN
  1
CELLMARGIN_BEGIN
 40
0.06
 40
0.06
 40
0.06
 40
0.06
 40
0.18
 40
0.18
309
CELLMARGIN_END
 94
        6
 95
        1
302
GRIDFORMAT
  1
GRIDFORMAT_BEGIN
 90
        0
 91
        1
 62
     0
 92
       -2
340
0
 93
        0
 40
0.045
309
GRIDFORMAT_END
 95
        2
302
GRIDFORMAT
  1
GRIDFORMAT_BEGIN
 90
        0
 91
        1
 62
     0
 92
       -2
340
0
 93
        0
 40
0.045
309
GRIDFORMAT_END
 95
        4
302
GRIDFORMAT
  1
GRIDFORMAT_BEGIN
 90
        0
 91
        1
 62
     0
 92
       -2
340
0
 93
        0
 40
0.045
309
GRIDFORMAT_END
 95
        8
302
GRIDFORMAT
  1
GRIDFORMAT_BEGIN
 90
        0
 91
        1
 62
     0
 92
       -2
340
0
 93
        0
 40
0.045
309
GRIDFORMAT_END
 95
       16
302
GRIDFORMAT
  1
GRIDFORMAT_BEGIN
 90
        0
 91
        1
 62
     0
 92
       -2
340
0
 93
        0
 40
0.045
309
GRIDFORMAT_END
 95
       32
302
GRIDFORMAT
  1
GRIDFORMAT_BEGIN
 90
        0
 91
        1
 62
     0
 92
       -2
340
0
 93
        0
 40
0.045
309
GRIDFORMAT_END
309
TABLEFORMAT_END
  1
CELLSTYLE_BEGIN
 90
        2
 91
        1
300
_HEADER
309
CELLSTYLE_END
300
CELLSTYLE
  1
TABLEFORMAT_BEGIN
 90
        5
170
     1
 91
        0
 92
        0
 62
   257
 93
        1
300
CONTENTFORMAT
  1
CONTENTFORMAT_BEGIN
 90
        0
 91
        0
 92
      512
 93
        0
300

 40
0.0
140
1.0
 94
        2
 62
     0
340
55
144
0.18
309
CONTENTFORMAT_END
171
     1
301
MARGIN
  1
CELLMARGIN_BEGIN
 40
0.06
 40
0.06
 40
0.06
 40
0.06
 40
0.18
 40
0.18
309
CELLMARGIN_END
 94
        6
 95
        1
302
GRIDFORMAT
  1
GRIDFORMAT_BEGIN
 90
        0
 91
        1
 62
     0
 92
       -2
340
0
 93
        0
 40
0.045
309
GRIDFORMAT_END
 95
        2
302
GRIDFORMAT
  1
GRIDFORMAT_BEGIN
 90
        0
 91
        1
 62
     0
 92
       -2
340
0
 93
        0
 40
0.045
309
GRIDFORMAT_END
 95
        4
302
GRIDFORMAT
  1
GRIDFORMAT_BEGIN
 90
        0
 91
        1
 62
     0
 92
       -2
340
0
 93
        0
 40
0.045
309
GRIDFORMAT_END
 95
        8
302
GRIDFORMAT
  1
GRIDFORMAT_BEGIN
 90
        0
 91
        1
 62
     0
 92
       -2
340
0
 93
        0
 40
0.045
309
GRIDFORMAT_END
 95
       16
302
GRIDFORMAT
  1
GRIDFORMAT_BEGIN
 90
        0
 91
        1
 62
     0
 92
       -2
340
0
 93
        0
 40
0.045
309
GRIDFORMAT_END
 95
       32
302
GRIDFORMAT
  1
GRIDFORMAT_BEGIN
 90
        0
 91
        1
 62
     0
 92
       -2
340
0
 93
        0
 40
0.045
309
GRIDFORMAT_END
309
TABLEFORMAT_END
  1
CELLSTYLE_BEGIN
 90
        3
 91
        2
300
_DATA
309
CELLSTYLE_END
  0
XRECORD
  5
1FEC
102
{ACAD_REACTORS
330
5AC
102
}
330
5AC
100
AcDbXrecord
280
     1
102
ACAD_ROUNDTRIP_PRE2007_TABLESTYLE
 90
      512
 91
        0
  1

 92
      512
 93
        0
  2

 94
      512
 95
        0
  3

  0
XRECORD
  5
1FC7
102
{ACAD_REACTORS
330
1FC6
102
}
330
1FC6
100
AcDbXrecord
280
     1
102
RTVSPropertyOp0
 70
     1
102
RTVSPropertyOp1
 70
     1
102
RTVSPropertyOp2
 70
     1
102
RTVSPropertyOp3
 70
     1
102
RTVSPropertyOp4
 70
     1
102
RTVSPropertyOp5
 70
     1
102
RTVSPropertyOp6
 70
     1
102
RTVSPropertyOp7
 70
     1
102
RTVSPropertyOp8
 70
     1
102
RTVSPropertyOp9
 70
     1
102
RTVSPropertyOp10
 70
     1
102
RTVSPropertyOp11
 70
     1
102
RTVSPropertyOp12
 70
     1
102
RTVSPropertyOp13
 70
     1
102
RTVSPropertyOp14
 70
     1
102
RTVSPropertyOp15
 70
     1
102
RTVSPropertyOp16
 70
     1
102
RTVSPropertyOp17
 70
     1
102
RTVSPropertyOp18
 70
     1
102
RTVSPropertyOp19
 70
     1
102
RTVSPropertyOp20
 70
     1
102
RTVSPropertyOp21
 70
     1
102
RTVSPropertyOp22
 70
     1
102
RTVSPropertyOp23
 70
     1
102
RTVSPropertyOp24
 70
     1
102
RTVSPropertyOp25
 70
     1
102
RTVSPropertyOp26
 70
     1
102
RTVSPropertyOp27
 70
     1
102
RTVSPropertyOp28
 70
     1
102
RTVSPropertyOp29
 70
     1
102
RTVSPropertyOp30
 70
     1
102
RTVSPropertyOp31
 70
     1
102
RTVSPropertyOp32
 70
     1
  0
XRECORD
  5
1FF2
102
{ACAD_REACTORS
330
1FF1
102
}
330
1FF1
100
AcDbXrecord
280
     1
102
RTVSPropertyOp0
 70
     1
102
RTVSPropertyOp1
 70
     1
102
RTVSPropertyOp2
 70
     1
102
RTVSPropertyOp3
 70
     1
102
RTVSPropertyOp4
 70
     1
102
RTVSPropertyOp5
 70
     1
102
RTVSPropertyOp6
 70
     1
102
RTVSPropertyOp7
 70
     1
102
RTVSPropertyOp8
 70
     1
102
RTVSPropertyOp9
 70
     1
102
RTVSPropertyOp10
 70
     1
102
RTVSPropertyOp11
 70
     1
102
RTVSPropertyOp12
 70
     1
102
RTVSPropertyOp13
 70
     1
102
RTVSPropertyOp14
 70
     1
102
RTVSPropertyOp15
 70
     1
102
RTVSPropertyOp16
 70
     1
102
RTVSPropertyOp17
 70
     1
102
RTVSPropertyOp18
 70
     1
102
RTVSPropertyOp19
 70
     1
102
RTVSPropertyOp20
 70
     1
102
RTVSPropertyOp21
 70
     1
102
RTVSPropertyOp22
 70
     1
102
RTVSPropertyOp23
 70
     1
102
RTVSPropertyOp24
 70
     1
102
RTVSPropertyOp25
 70
     1
102
RTVSPropertyOp26
 70
     1
102
RTVSPropertyOp27
 70
     1
102
RTVSPropertyOp28
 70
     1
102
RTVSPropertyOp29
 70
     1
102
RTVSPropertyOp30
 70
     1
102
RTVSPropertyOp31
 70
     1
102
RTVSPropertyOp32
 70
     1
  0
XRECORD
  5
1FC5
102
{ACAD_REACTORS
330
1FC4
102
}
330
1FC4
100
AcDbXrecord
280
     1
102
RTVSPropertyOp0
 70
     1
102
RTVSPropertyOp1
 70
     1
102
RTVSPropertyOp2
 70
     1
102
RTVSPropertyOp3
 70
     1
102
RTVSPropertyOp4
 70
     1
102
RTVSPropertyOp5
 70
     1
102
RTVSPropertyOp6
 70
     1
102
RTVSPropertyOp7
 70
     1
102
RTVSPropertyOp8
 70
     1
102
RTVSPropertyOp9
 70
     1
102
RTVSPropertyOp10
 70
     1
102
RTVSPropertyOp11
 70
     1
102
RTVSPropertyOp12
 70
     1
102
RTVSPropertyOp13
 70
     1
102
RTVSPropertyOp14
 70
     1
102
RTVSPropertyOp15
 70
     1
102
RTVSPropertyOp16
 70
     1
102
RTVSPropertyOp17
 70
     1
102
RTVSPropertyOp18
 70
     1
102
RTVSPropertyOp19
 70
     1
102
RTVSPropertyOp20
 70
     1
102
RTVSPropertyOp21
 70
     1
102
RTVSPropertyOp22
 70
     1
102
RTVSPropertyOp23
 70
     1
102
RTVSPropertyOp24
 70
     1
102
RTVSPropertyOp25
 70
     1
102
RTVSPropertyOp26
 70
     1
102
RTVSPropertyOp27
 70
     1
102
RTVSPropertyOp28
 70
     1
102
RTVSPropertyOp29
 70
     1
102
RTVSPropertyOp30
 70
     1
102
RTVSPropertyOp31
 70
     1
102
RTVSPropertyOp32
 70
     1
  0
XRECORD
  5
1FD3
102
{ACAD_REACTORS
330
1FD2
102
}
330
1FD2
100
AcDbXrecord
280
     1
102
RTVSPropertyOp0
 70
     1
102
RTVSPropertyOp1
 70
     1
102
RTVSPropertyOp2
 70
     1
102
RTVSPropertyOp3
 70
     1
102
RTVSPropertyOp4
 70
     1
102
RTVSPropertyOp5
 70
     1
102
RTVSPropertyOp6
 70
     1
102
RTVSPropertyOp7
 70
     1
102
RTVSPropertyOp8
 70
     1
102
RTVSPropertyOp9
 70
     1
102
RTVSPropertyOp10
 70
     1
102
RTVSPropertyOp11
 70
     1
102
RTVSPropertyOp12
 70
     1
102
RTVSPropertyOp13
 70
     1
102
RTVSPropertyOp14
 70
     1
102
RTVSPropertyOp15
 70
     1
102
RTVSPropertyOp16
 70
     1
102
RTVSPropertyOp17
 70
     1
102
RTVSPropertyOp18
 70
     1
102
RTVSPropertyOp19
 70
     1
102
RTVSPropertyOp20
 70
     1
102
RTVSPropertyOp21
 70
     1
102
RTVSPropertyOp22
 70
     1
102
RTVSPropertyOp23
 70
     1
102
RTVSPropertyOp24
 70
     1
102
RTVSPropertyOp25
 70
     1
102
RTVSPropertyOp26
 70
     1
102
RTVSPropertyOp27
 70
     1
102
RTVSPropertyOp28
 70
     1
102
RTVSPropertyOp29
 70
     1
102
RTVSPropertyOp30
 70
     1
102
RTVSPropertyOp31
 70
     1
102
RTVSPropertyOp32
 70
     1
  0
XRECORD
  5
1FDB
102
{ACAD_REACTORS
330
1FDA
102
}
330
1FDA
100
AcDbXrecord
280
     1
102
RTVSPropertyOp0
 70
     1
102
RTVSPropertyOp1
 70
     1
102
RTVSPropertyOp2
 70
     1
102
RTVSPropertyOp3
 70
     1
102
RTVSPropertyOp4
 70
     1
102
RTVSPropertyOp5
 70
     1
102
RTVSPropertyOp6
 70
     1
102
RTVSPropertyOp7
 70
     1
102
RTVSPropertyOp8
 70
     1
102
RTVSPropertyOp9
 70
     1
102
RTVSPropertyOp10
 70
     1
102
RTVSPropertyOp11
 70
     1
102
RTVSPropertyOp12
 70
     1
102
RTVSPropertyOp13
 70
     1
102
RTVSPropertyOp14
 70
     1
102
RTVSPropertyOp15
 70
     1
102
RTVSPropertyOp16
 70
     1
102
RTVSPropertyOp17
 70
     1
102
RTVSPropertyOp18
 70
     1
102
RTVSPropertyOp19
 70
     1
102
RTVSPropertyOp20
 70
     1
102
RTVSPropertyOp21
 70
     1
102
RTVSPropertyOp22
 70
     1
102
RTVSPropertyOp23
 70
     1
102
RTVSPropertyOp24
 70
     1
102
RTVSPropertyOp25
 70
     1
102
RTVSPropertyOp26
 70
     1
102
RTVSPropertyOp27
 70
     1
102
RTVSPropertyOp28
 70
     1
102
RTVSPropertyOp29
 70
     1
102
RTVSPropertyOp30
 70
     1
102
RTVSPropertyOp31
 70
     1
102
RTVSPropertyOp32
 70
     1
  0
XRECORD
  5
1FCD
102
{ACAD_REACTORS
330
1FCC
102
}
330
1FCC
100
AcDbXrecord
280
     1
102
RTVSPropertyOp0
 70
     1
102
RTVSPropertyOp1
 70
     1
102
RTVSPropertyOp2
 70
     1
102
RTVSPropertyOp3
 70
     1
102
RTVSPropertyOp4
 70
     1
102
RTVSPropertyOp5
 70
     1
102
RTVSPropertyOp6
 70
     1
102
RTVSPropertyOp7
 70
     1
102
RTVSPropertyOp8
 70
     1
102
RTVSPropertyOp9
 70
     1
102
RTVSPropertyOp10
 70
     1
102
RTVSPropertyOp11
 70
     1
102
RTVSPropertyOp12
 70
     1
102
RTVSPropertyOp13
 70
     1
102
RTVSPropertyOp14
 70
     1
102
RTVSPropertyOp15
 70
     1
102
RTVSPropertyOp16
 70
     1
102
RTVSPropertyOp17
 70
     1
102
RTVSPropertyOp18
 70
     1
102
RTVSPropertyOp19
 70
     1
102
RTVSPropertyOp20
 70
     1
102
RTVSPropertyOp21
 70
     1
102
RTVSPropertyOp22
 70
     1
102
RTVSPropertyOp23
 70
     1
102
RTVSPropertyOp24
 70
     1
102
RTVSPropertyOp25
 70
     1
102
RTVSPropertyOp26
 70
     1
102
RTVSPropertyOp27
 70
     1
102
RTVSPropertyOp28
 70
     1
102
RTVSPropertyOp29
 70
     1
102
RTVSPropertyOp30
 70
     1
102
RTVSPropertyOp31
 70
     1
102
RTVSPropertyOp32
 70
     1
  0
XRECORD
  5
1FD1
102
{ACAD_REACTORS
330
1FD0
102
}
330
1FD0
100
AcDbXrecord
280
     1
102
RTVSPropertyOp0
 70
     1
102
RTVSPropertyOp1
 70
     1
102
RTVSPropertyOp2
 70
     1
102
RTVSPropertyOp3
 70
     1
102
RTVSPropertyOp4
 70
     1
102
RTVSPropertyOp5
 70
     1
102
RTVSPropertyOp6
 70
     1
102
RTVSPropertyOp7
 70
     1
102
RTVSPropertyOp8
 70
     1
102
RTVSPropertyOp9
 70
     1
102
RTVSPropertyOp10
 70
     1
102
RTVSPropertyOp11
 70
     1
102
RTVSPropertyOp12
 70
     1
102
RTVSPropertyOp13
 70
     1
102
RTVSPropertyOp14
 70
     1
102
RTVSPropertyOp15
 70
     1
102
RTVSPropertyOp16
 70
     1
102
RTVSPropertyOp17
 70
     1
102
RTVSPropertyOp18
 70
     1
102
RTVSPropertyOp19
 70
     1
102
RTVSPropertyOp20
 70
     1
102
RTVSPropertyOp21
 70
     1
102
RTVSPropertyOp22
 70
     1
102
RTVSPropertyOp23
 70
     1
102
RTVSPropertyOp24
 70
     1
102
RTVSPropertyOp25
 70
     1
102
RTVSPropertyOp26
 70
     1
102
RTVSPropertyOp27
 70
     1
102
RTVSPropertyOp28
 70
     1
102
RTVSPropertyOp29
 70
     1
102
RTVSPropertyOp30
 70
     1
102
RTVSPropertyOp31
 70
     1
102
RTVSPropertyOp32
 70
     1
  0
XRECORD
  5
1FEB
102
{ACAD_REACTORS
330
1FEA
102
}
330
1FEA
100
AcDbXrecord
280
     1
102
RTVSPropertyOp0
 70
     0
102
RTVSPropertyOp1
 70
     0
102
RTVSPropertyOp2
 70
     0
102
RTVSPropertyOp3
 70
     0
102
RTVSPropertyOp4
 70
     0
102
RTVSPropertyOp5
 70
     0
102
RTVSPropertyOp6
 70
     0
102
RTVSPropertyOp7
 70
     0
102
RTVSPropertyOp8
 70
     0
102
RTVSPropertyOp9
 70
     0
102
RTVSPropertyOp10
 70
     0
102
RTVSPropertyOp11
 70
     0
102
RTVSPropertyOp12
 70
     0
102
RTVSPropertyOp13
 70
     0
102
RTVSPropertyOp14
 70
     2
102
RTVSPropertyOp15
 70
     0
102
RTVSPropertyOp16
 70
     0
102
RTVSPropertyOp17
 70
     0
102
RTVSPropertyOp18
 70
     0
102
RTVSPropertyOp19
 70
     0
102
RTVSPropertyOp20
 70
     0
102
RTVSPropertyOp21
 70
     0
102
RTVSPropertyOp22
 70
     0
102
RTVSPropertyOp23
 70
     0
102
RTVSPropertyOp24
 70
     0
102
RTVSPropertyOp25
 70
     0
102
RTVSPropertyOp26
 70
     0
102
RTVSPropertyOp27
 70
     0
102
RTVSPropertyOp28
 70
     0
102
RTVSPropertyOp29
 70
     0
102
RTVSPropertyOp30
 70
     0
102
RTVSPropertyOp31
 70
     0
102
RTVSPropertyOp32
 70
     0
  0
XRECORD
  5
1FD9
102
{ACAD_REACTORS
330
1FD8
102
}
330
1FD8
100
AcDbXrecord
280
     1
102
RTVSPropertyOp0
 70
     1
102
RTVSPropertyOp1
 70
     1
102
RTVSPropertyOp2
 70
     1
102
RTVSPropertyOp3
 70
     1
102
RTVSPropertyOp4
 70
     1
102
RTVSPropertyOp5
 70
     1
102
RTVSPropertyOp6
 70
     1
102
RTVSPropertyOp7
 70
     1
102
RTVSPropertyOp8
 70
     1
102
RTVSPropertyOp9
 70
     1
102
RTVSPropertyOp10
 70
     1
102
RTVSPropertyOp11
 70
     1
102
RTVSPropertyOp12
 70
     1
102
RTVSPropertyOp13
 70
     1
102
RTVSPropertyOp14
 70
     1
102
RTVSPropertyOp15
 70
     1
102
RTVSPropertyOp16
 70
     1
102
RTVSPropertyOp17
 70
     1
102
RTVSPropertyOp18
 70
     1
102
RTVSPropertyOp19
 70
     1
102
RTVSPropertyOp20
 70
     1
102
RTVSPropertyOp21
 70
     1
102
RTVSPropertyOp22
 70
     1
102
RTVSPropertyOp23
 70
     1
102
RTVSPropertyOp24
 70
     1
102
RTVSPropertyOp25
 70
     1
102
RTVSPropertyOp26
 70
     1
102
RTVSPropertyOp27
 70
     1
102
RTVSPropertyOp28
 70
     1
102
RTVSPropertyOp29
 70
     1
102
RTVSPropertyOp30
 70
     1
102
RTVSPropertyOp31
 70
     1
102
RTVSPropertyOp32
 70
     1
  0
XRECORD
  5
1FBD
102
{ACAD_REACTORS
330
1FBC
102
}
330
1FBC
100
AcDbXrecord
280
     1
102
RTVSPropertyOp0
 70
     1
102
RTVSPropertyOp1
 70
     1
102
RTVSPropertyOp2
 70
     1
102
RTVSPropertyOp3
 70
     1
102
RTVSPropertyOp4
 70
     1
102
RTVSPropertyOp5
 70
     1
102
RTVSPropertyOp6
 70
     1
102
RTVSPropertyOp7
 70
     1
102
RTVSPropertyOp8
 70
     1
102
RTVSPropertyOp9
 70
     1
102
RTVSPropertyOp10
 70
     1
102
RTVSPropertyOp11
 70
     1
102
RTVSPropertyOp12
 70
     1
102
RTVSPropertyOp13
 70
     1
102
RTVSPropertyOp14
 70
     1
102
RTVSPropertyOp15
 70
     1
102
RTVSPropertyOp16
 70
     1
102
RTVSPropertyOp17
 70
     1
102
RTVSPropertyOp18
 70
     1
102
RTVSPropertyOp19
 70
     1
102
RTVSPropertyOp20
 70
     1
102
RTVSPropertyOp21
 70
     1
102
RTVSPropertyOp22
 70
     1
102
RTVSPropertyOp23
 70
     1
102
RTVSPropertyOp24
 70
     1
102
RTVSPropertyOp25
 70
     1
102
RTVSPropertyOp26
 70
     1
102
RTVSPropertyOp27
 70
     1
102
RTVSPropertyOp28
 70
     1
102
RTVSPropertyOp29
 70
     1
102
RTVSPropertyOp30
 70
     1
102
RTVSPropertyOp31
 70
     1
102
RTVSPropertyOp32
 70
     1
  0
XRECORD
  5
1FBF
102
{ACAD_REACTORS
330
1FBE
102
}
330
1FBE
100
AcDbXrecord
280
     1
102
RTVSPropertyOp0
 70
     1
102
RTVSPropertyOp1
 70
     1
102
RTVSPropertyOp2
 70
     1
102
RTVSPropertyOp3
 70
     1
102
RTVSPropertyOp4
 70
     1
102
RTVSPropertyOp5
 70
     1
102
RTVSPropertyOp6
 70
     1
102
RTVSPropertyOp7
 70
     1
102
RTVSPropertyOp8
 70
     1
102
RTVSPropertyOp9
 70
     1
102
RTVSPropertyOp10
 70
     1
102
RTVSPropertyOp11
 70
     1
102
RTVSPropertyOp12
 70
     1
102
RTVSPropertyOp13
 70
     1
102
RTVSPropertyOp14
 70
     1
102
RTVSPropertyOp15
 70
     1
102
RTVSPropertyOp16
 70
     1
102
RTVSPropertyOp17
 70
     1
102
RTVSPropertyOp18
 70
     1
102
RTVSPropertyOp19
 70
     1
102
RTVSPropertyOp20
 70
     1
102
RTVSPropertyOp21
 70
     1
102
RTVSPropertyOp22
 70
     1
102
RTVSPropertyOp23
 70
     1
102
RTVSPropertyOp24
 70
     1
102
RTVSPropertyOp25
 70
     1
102
RTVSPropertyOp26
 70
     1
102
RTVSPropertyOp27
 70
     1
102
RTVSPropertyOp28
 70
     1
102
RTVSPropertyOp29
 70
     1
102
RTVSPropertyOp30
 70
     1
102
RTVSPropertyOp31
 70
     1
102
RTVSPropertyOp32
 70
     1
  0
XRECORD
  5
1FC1
102
{ACAD_REACTORS
330
1FC0
102
}
330
1FC0
100
AcDbXrecord
280
     1
102
RTVSPropertyOp0
 70
     1
102
RTVSPropertyOp1
 70
     1
102
RTVSPropertyOp2
 70
     1
102
RTVSPropertyOp3
 70
     1
102
RTVSPropertyOp4
 70
     1
102
RTVSPropertyOp5
 70
     1
102
RTVSPropertyOp6
 70
     1
102
RTVSPropertyOp7
 70
     1
102
RTVSPropertyOp8
 70
     1
102
RTVSPropertyOp9
 70
     1
102
RTVSPropertyOp10
 70
     1
102
RTVSPropertyOp11
 70
     1
102
RTVSPropertyOp12
 70
     1
102
RTVSPropertyOp13
 70
     1
102
RTVSPropertyOp14
 70
     1
102
RTVSPropertyOp15
 70
     1
102
RTVSPropertyOp16
 70
     1
102
RTVSPropertyOp17
 70
     1
102
RTVSPropertyOp18
 70
     1
102
RTVSPropertyOp19
 70
     1
102
RTVSPropertyOp20
 70
     1
102
RTVSPropertyOp21
 70
     1
102
RTVSPropertyOp22
 70
     1
102
RTVSPropertyOp23
 70
     1
102
RTVSPropertyOp24
 70
     1
102
RTVSPropertyOp25
 70
     1
102
RTVSPropertyOp26
 70
     1
102
RTVSPropertyOp27
 70
     1
102
RTVSPropertyOp28
 70
     1
102
RTVSPropertyOp29
 70
     1
102
RTVSPropertyOp30
 70
     1
102
RTVSPropertyOp31
 70
     1
102
RTVSPropertyOp32
 70
     1
  0
XRECORD
  5
1FC3
102
{ACAD_REACTORS
330
1FC2
102
}
330
1FC2
100
AcDbXrecord
280
     1
102
RTVSPropertyOp0
 70
     1
102
RTVSPropertyOp1
 70
     1
102
RTVSPropertyOp2
 70
     1
102
RTVSPropertyOp3
 70
     1
102
RTVSPropertyOp4
 70
     1
102
RTVSPropertyOp5
 70
     1
102
RTVSPropertyOp6
 70
     1
102
RTVSPropertyOp7
 70
     1
102
RTVSPropertyOp8
 70
     1
102
RTVSPropertyOp9
 70
     1
102
RTVSPropertyOp10
 70
     1
102
RTVSPropertyOp11
 70
     1
102
RTVSPropertyOp12
 70
     1
102
RTVSPropertyOp13
 70
     1
102
RTVSPropertyOp14
 70
     1
102
RTVSPropertyOp15
 70
     1
102
RTVSPropertyOp16
 70
     1
102
RTVSPropertyOp17
 70
     1
102
RTVSPropertyOp18
 70
     1
102
RTVSPropertyOp19
 70
     1
102
RTVSPropertyOp20
 70
     1
102
RTVSPropertyOp21
 70
     1
102
RTVSPropertyOp22
 70
     1
102
RTVSPropertyOp23
 70
     1
102
RTVSPropertyOp24
 70
     1
102
RTVSPropertyOp25
 70
     1
102
RTVSPropertyOp26
 70
     1
102
RTVSPropertyOp27
 70
     1
102
RTVSPropertyOp28
 70
     1
102
RTVSPropertyOp29
 70
     1
102
RTVSPropertyOp30
 70
     1
102
RTVSPropertyOp31
 70
     1
102
RTVSPropertyOp32
 70
     1
  0
XRECORD
  5
1FCB
102
{ACAD_REACTORS
330
1FCA
102
}
330
1FCA
100
AcDbXrecord
280
     1
102
RTVSPropertyOp0
 70
     1
102
RTVSPropertyOp1
 70
     1
102
RTVSPropertyOp2
 70
     1
102
RTVSPropertyOp3
 70
     1
102
RTVSPropertyOp4
 70
     1
102
RTVSPropertyOp5
 70
     1
102
RTVSPropertyOp6
 70
     1
102
RTVSPropertyOp7
 70
     1
102
RTVSPropertyOp8
 70
     1
102
RTVSPropertyOp9
 70
     1
102
RTVSPropertyOp10
 70
     1
102
RTVSPropertyOp11
 70
     1
102
RTVSPropertyOp12
 70
     1
102
RTVSPropertyOp13
 70
     1
102
RTVSPropertyOp14
 70
     1
102
RTVSPropertyOp15
 70
     1
102
RTVSPropertyOp16
 70
     1
102
RTVSPropertyOp17
 70
     1
102
RTVSPropertyOp18
 70
     1
102
RTVSPropertyOp19
 70
     1
102
RTVSPropertyOp20
 70
     1
102
RTVSPropertyOp21
 70
     1
102
RTVSPropertyOp22
 70
     1
102
RTVSPropertyOp23
 70
     1
102
RTVSPropertyOp24
 70
     1
102
RTVSPropertyOp25
 70
     1
102
RTVSPropertyOp26
 70
     1
102
RTVSPropertyOp27
 70
     1
102
RTVSPropertyOp28
 70
     1
102
RTVSPropertyOp29
 70
     1
102
RTVSPropertyOp30
 70
     1
102
RTVSPropertyOp31
 70
     1
102
RTVSPropertyOp32
 70
     1
  0
XRECORD
  5
1FE7
102
{ACAD_REACTORS
330
1FE6
102
}
330
1FE6
100
AcDbXrecord
280
     1
102
RTVSPropertyOp0
 70
     0
102
RTVSPropertyOp1
 70
     0
102
RTVSPropertyOp2
 70
     0
102
RTVSPropertyOp3
 70
     0
102
RTVSPropertyOp4
 70
     0
102
RTVSPropertyOp5
 70
     0
102
RTVSPropertyOp6
 70
     0
102
RTVSPropertyOp7
 70
     0
102
RTVSPropertyOp8
 70
     0
102
RTVSPropertyOp9
 70
     0
102
RTVSPropertyOp10
 70
     0
102
RTVSPropertyOp11
 70
     0
102
RTVSPropertyOp12
 70
     0
102
RTVSPropertyOp13
 70
     0
102
RTVSPropertyOp14
 70
     2
102
RTVSPropertyOp15
 70
     0
102
RTVSPropertyOp16
 70
     0
102
RTVSPropertyOp17
 70
     0
102
RTVSPropertyOp18
 70
     0
102
RTVSPropertyOp19
 70
     0
102
RTVSPropertyOp20
 70
     0
102
RTVSPropertyOp21
 70
     0
102
RTVSPropertyOp22
 70
     0
102
RTVSPropertyOp23
 70
     0
102
RTVSPropertyOp24
 70
     0
102
RTVSPropertyOp25
 70
     0
102
RTVSPropertyOp26
 70
     0
102
RTVSPropertyOp27
 70
     0
102
RTVSPropertyOp28
 70
     0
102
RTVSPropertyOp29
 70
     0
102
RTVSPropertyOp30
 70
     0
102
RTVSPropertyOp31
 70
     0
102
RTVSPropertyOp32
 70
     0
  0
XRECORD
  5
1FD7
102
{ACAD_REACTORS
330
1FD6
102
}
330
1FD6
100
AcDbXrecord
280
     1
102
RTVSPropertyOp0
 70
     1
102
RTVSPropertyOp1
 70
     1
102
RTVSPropertyOp2
 70
     1
102
RTVSPropertyOp3
 70
     1
102
RTVSPropertyOp4
 70
     1
102
RTVSPropertyOp5
 70
     1
102
RTVSPropertyOp6
 70
     1
102
RTVSPropertyOp7
 70
     1
102
RTVSPropertyOp8
 70
     1
102
RTVSPropertyOp9
 70
     1
102
RTVSPropertyOp10
 70
     1
102
RTVSPropertyOp11
 70
     1
102
RTVSPropertyOp12
 70
     1
102
RTVSPropertyOp13
 70
     1
102
RTVSPropertyOp14
 70
     1
102
RTVSPropertyOp15
 70
     1
102
RTVSPropertyOp16
 70
     1
102
RTVSPropertyOp17
 70
     1
102
RTVSPropertyOp18
 70
     1
102
RTVSPropertyOp19
 70
     1
102
RTVSPropertyOp20
 70
     1
102
RTVSPropertyOp21
 70
     1
102
RTVSPropertyOp22
 70
     1
102
RTVSPropertyOp23
 70
     1
102
RTVSPropertyOp24
 70
     1
102
RTVSPropertyOp25
 70
     1
102
RTVSPropertyOp26
 70
     1
102
RTVSPropertyOp27
 70
     1
102
RTVSPropertyOp28
 70
     1
102
RTVSPropertyOp29
 70
     1
102
RTVSPropertyOp30
 70
     1
102
RTVSPropertyOp31
 70
     1
102
RTVSPropertyOp32
 70
     1
  0
XRECORD
  5
1FE9
102
{ACAD_REACTORS
330
1FE8
102
}
330
1FE8
100
AcDbXrecord
280
     1
102
RTVSPropertyOp0
 70
     0
102
RTVSPropertyOp1
 70
     0
102
RTVSPropertyOp2
 70
     0
102
RTVSPropertyOp3
 70
     0
102
RTVSPropertyOp4
 70
     0
102
RTVSPropertyOp5
 70
     0
102
RTVSPropertyOp6
 70
     0
102
RTVSPropertyOp7
 70
     0
102
RTVSPropertyOp8
 70
     0
102
RTVSPropertyOp9
 70
     0
102
RTVSPropertyOp10
 70
     0
102
RTVSPropertyOp11
 70
     0
102
RTVSPropertyOp12
 70
     0
102
RTVSPropertyOp13
 70
     0
102
RTVSPropertyOp14
 70
     2
102
RTVSPropertyOp15
 70
     0
102
RTVSPropertyOp16
 70
     0
102
RTVSPropertyOp17
 70
     0
102
RTVSPropertyOp18
 70
     0
102
RTVSPropertyOp19
 70
     0
102
RTVSPropertyOp20
 70
     0
102
RTVSPropertyOp21
 70
     0
102
RTVSPropertyOp22
 70
     0
102
RTVSPropertyOp23
 70
     0
102
RTVSPropertyOp24
 70
     0
102
RTVSPropertyOp25
 70
     0
102
RTVSPropertyOp26
 70
     0
102
RTVSPropertyOp27
 70
     0
102
RTVSPropertyOp28
 70
     0
102
RTVSPropertyOp29
 70
     0
102
RTVSPropertyOp30
 70
     0
102
RTVSPropertyOp31
 70
     0
102
RTVSPropertyOp32
 70
     0
  0
XRECORD
  5
1FCF
102
{ACAD_REACTORS
330
1FCE
102
}
330
1FCE
100
AcDbXrecord
280
     1
102
RTVSPropertyOp0
 70
     1
102
RTVSPropertyOp1
 70
     1
102
RTVSPropertyOp2
 70
     1
102
RTVSPropertyOp3
 70
     1
102
RTVSPropertyOp4
 70
     1
102
RTVSPropertyOp5
 70
     1
102
RTVSPropertyOp6
 70
     1
102
RTVSPropertyOp7
 70
     1
102
RTVSPropertyOp8
 70
     1
102
RTVSPropertyOp9
 70
     1
102
RTVSPropertyOp10
 70
     1
102
RTVSPropertyOp11
 70
     1
102
RTVSPropertyOp12
 70
     1
102
RTVSPropertyOp13
 70
     1
102
RTVSPropertyOp14
 70
     1
102
RTVSPropertyOp15
 70
     1
102
RTVSPropertyOp16
 70
     1
102
RTVSPropertyOp17
 70
     1
102
RTVSPropertyOp18
 70
     1
102
RTVSPropertyOp19
 70
     1
102
RTVSPropertyOp20
 70
     1
102
RTVSPropertyOp21
 70
     1
102
RTVSPropertyOp22
 70
     1
102
RTVSPropertyOp23
 70
     1
102
RTVSPropertyOp24
 70
     1
102
RTVSPropertyOp25
 70
     1
102
RTVSPropertyOp26
 70
     1
102
RTVSPropertyOp27
 70
     1
102
RTVSPropertyOp28
 70
     1
102
RTVSPropertyOp29
 70
     1
102
RTVSPropertyOp30
 70
     1
102
RTVSPropertyOp31
 70
     1
102
RTVSPropertyOp32
 70
     1
  0
XRECORD
  5
1FE5
102
{ACAD_REACTORS
330
1FE4
102
}
330
1FE4
100
AcDbXrecord
280
     1
102
RTVSPropertyOp0
 70
     1
102
RTVSPropertyOp1
 70
     1
102
RTVSPropertyOp2
 70
     1
102
RTVSPropertyOp3
 70
     1
102
RTVSPropertyOp4
 70
     1
102
RTVSPropertyOp5
 70
     1
102
RTVSPropertyOp6
 70
     1
102
RTVSPropertyOp7
 70
     1
102
RTVSPropertyOp8
 70
     1
102
RTVSPropertyOp9
 70
     1
102
RTVSPropertyOp10
 70
     1
102
RTVSPropertyOp11
 70
     1
102
RTVSPropertyOp12
 70
     1
102
RTVSPropertyOp13
 70
     1
102
RTVSPropertyOp14
 70
     1
102
RTVSPropertyOp15
 70
     1
102
RTVSPropertyOp16
 70
     1
102
RTVSPropertyOp17
 70
     1
102
RTVSPropertyOp18
 70
     1
102
RTVSPropertyOp19
 70
     1
102
RTVSPropertyOp20
 70
     1
102
RTVSPropertyOp21
 70
     1
102
RTVSPropertyOp22
 70
     1
102
RTVSPropertyOp23
 70
     1
102
RTVSPropertyOp24
 70
     1
102
RTVSPropertyOp25
 70
     1
102
RTVSPropertyOp26
 70
     1
102
RTVSPropertyOp27
 70
     1
102
RTVSPropertyOp28
 70
     1
102
RTVSPropertyOp29
 70
     1
102
RTVSPropertyOp30
 70
     1
102
RTVSPropertyOp31
 70
     1
102
RTVSPropertyOp32
 70
     1
  0
XRECORD
  5
1FE3
102
{ACAD_REACTORS
330
1FE2
102
}
330
1FE2
100
AcDbXrecord
280
     1
102
RTVSPropertyOp0
 70
     1
102
RTVSPropertyOp1
 70
     1
102
RTVSPropertyOp2
 70
     1
102
RTVSPropertyOp3
 70
     1
102
RTVSPropertyOp4
 70
     1
102
RTVSPropertyOp5
 70
     1
102
RTVSPropertyOp6
 70
     1
102
RTVSPropertyOp7
 70
     1
102
RTVSPropertyOp8
 70
     1
102
RTVSPropertyOp9
 70
     1
102
RTVSPropertyOp10
 70
     1
102
RTVSPropertyOp11
 70
     1
102
RTVSPropertyOp12
 70
     1
102
RTVSPropertyOp13
 70
     1
102
RTVSPropertyOp14
 70
     1
102
RTVSPropertyOp15
 70
     1
102
RTVSPropertyOp16
 70
     1
102
RTVSPropertyOp17
 70
     1
102
RTVSPropertyOp18
 70
     1
102
RTVSPropertyOp19
 70
     1
102
RTVSPropertyOp20
 70
     1
102
RTVSPropertyOp21
 70
     1
102
RTVSPropertyOp22
 70
     1
102
RTVSPropertyOp23
 70
     1
102
RTVSPropertyOp24
 70
     1
102
RTVSPropertyOp25
 70
     1
102
RTVSPropertyOp26
 70
     1
102
RTVSPropertyOp27
 70
     1
102
RTVSPropertyOp28
 70
     1
102
RTVSPropertyOp29
 70
     1
102
RTVSPropertyOp30
 70
     1
102
RTVSPropertyOp31
 70
     1
102
RTVSPropertyOp32
 70
     1
  0
XRECORD
  5
1FDD
102
{ACAD_REACTORS
330
1FDC
102
}
330
1FDC
100
AcDbXrecord
280
     1
102
RTVSPropertyOp0
 70
     1
102
RTVSPropertyOp1
 70
     1
102
RTVSPropertyOp2
 70
     1
102
RTVSPropertyOp3
 70
     1
102
RTVSPropertyOp4
 70
     1
102
RTVSPropertyOp5
 70
     1
102
RTVSPropertyOp6
 70
     1
102
RTVSPropertyOp7
 70
     1
102
RTVSPropertyOp8
 70
     1
102
RTVSPropertyOp9
 70
     1
102
RTVSPropertyOp10
 70
     1
102
RTVSPropertyOp11
 70
     1
102
RTVSPropertyOp12
 70
     1
102
RTVSPropertyOp13
 70
     1
102
RTVSPropertyOp14
 70
     1
102
RTVSPropertyOp15
 70
     1
102
RTVSPropertyOp16
 70
     1
102
RTVSPropertyOp17
 70
     1
102
RTVSPropertyOp18
 70
     1
102
RTVSPropertyOp19
 70
     1
102
RTVSPropertyOp20
 70
     1
102
RTVSPropertyOp21
 70
     1
102
RTVSPropertyOp22
 70
     1
102
RTVSPropertyOp23
 70
     1
102
RTVSPropertyOp24
 70
     1
102
RTVSPropertyOp25
 70
     1
102
RTVSPropertyOp26
 70
     1
102
RTVSPropertyOp27
 70
     1
102
RTVSPropertyOp28
 70
     1
102
RTVSPropertyOp29
 70
     1
102
RTVSPropertyOp30
 70
     1
102
RTVSPropertyOp31
 70
     1
102
RTVSPropertyOp32
 70
     1
  0
XRECORD
  5
1FDF
102
{ACAD_REACTORS
330
1FDE
102
}
330
1FDE
100
AcDbXrecord
280
     1
102
RTVSPropertyOp0
 70
     1
102
RTVSPropertyOp1
 70
     1
102
RTVSPropertyOp2
 70
     1
102
RTVSPropertyOp3
 70
     1
102
RTVSPropertyOp4
 70
     1
102
RTVSPropertyOp5
 70
     1
102
RTVSPropertyOp6
 70
     1
102
RTVSPropertyOp7
 70
     1
102
RTVSPropertyOp8
 70
     1
102
RTVSPropertyOp9
 70
     1
102
RTVSPropertyOp10
 70
     1
102
RTVSPropertyOp11
 70
     1
102
RTVSPropertyOp12
 70
     1
102
RTVSPropertyOp13
 70
     1
102
RTVSPropertyOp14
 70
     1
102
RTVSPropertyOp15
 70
     1
102
RTVSPropertyOp16
 70
     1
102
RTVSPropertyOp17
 70
     1
102
RTVSPropertyOp18
 70
     1
102
RTVSPropertyOp19
 70
     1
102
RTVSPropertyOp20
 70
     1
102
RTVSPropertyOp21
 70
     1
102
RTVSPropertyOp22
 70
     1
102
RTVSPropertyOp23
 70
     1
102
RTVSPropertyOp24
 70
     1
102
RTVSPropertyOp25
 70
     1
102
RTVSPropertyOp26
 70
     1
102
RTVSPropertyOp27
 70
     1
102
RTVSPropertyOp28
 70
     1
102
RTVSPropertyOp29
 70
     1
102
RTVSPropertyOp30
 70
     1
102
RTVSPropertyOp31
 70
     1
102
RTVSPropertyOp32
 70
     1
  0
XRECORD
  5
1FD5
102
{ACAD_REACTORS
330
1FD4
102
}
330
1FD4
100
AcDbXrecord
280
     1
102
RTVSPropertyOp0
 70
     1
102
RTVSPropertyOp1
 70
     1
102
RTVSPropertyOp2
 70
     1
102
RTVSPropertyOp3
 70
     1
102
RTVSPropertyOp4
 70
     1
102
RTVSPropertyOp5
 70
     1
102
RTVSPropertyOp6
 70
     1
102
RTVSPropertyOp7
 70
     1
102
RTVSPropertyOp8
 70
     1
102
RTVSPropertyOp9
 70
     1
102
RTVSPropertyOp10
 70
     1
102
RTVSPropertyOp11
 70
     1
102
RTVSPropertyOp12
 70
     1
102
RTVSPropertyOp13
 70
     1
102
RTVSPropertyOp14
 70
     1
102
RTVSPropertyOp15
 70
     1
102
RTVSPropertyOp16
 70
     1
102
RTVSPropertyOp17
 70
     1
102
RTVSPropertyOp18
 70
     1
102
RTVSPropertyOp19
 70
     1
102
RTVSPropertyOp20
 70
     1
102
RTVSPropertyOp21
 70
     1
102
RTVSPropertyOp22
 70
     1
102
RTVSPropertyOp23
 70
     1
102
RTVSPropertyOp24
 70
     1
102
RTVSPropertyOp25
 70
     1
102
RTVSPropertyOp26
 70
     1
102
RTVSPropertyOp27
 70
     1
102
RTVSPropertyOp28
 70
     1
102
RTVSPropertyOp29
 70
     1
102
RTVSPropertyOp30
 70
     1
102
RTVSPropertyOp31
 70
     1
102
RTVSPropertyOp32
 70
     1
  0
XRECORD
  5
1FC9
102
{ACAD_REACTORS
330
1FC8
102
}
330
1FC8
100
AcDbXrecord
280
     1
102
RTVSPropertyOp0
 70
     1
102
RTVSPropertyOp1
 70
     1
102
RTVSPropertyOp2
 70
     1
102
RTVSPropertyOp3
 70
     1
102
RTVSPropertyOp4
 70
     1
102
RTVSPropertyOp5
 70
     1
102
RTVSPropertyOp6
 70
     1
102
RTVSPropertyOp7
 70
     1
102
RTVSPropertyOp8
 70
     1
102
RTVSPropertyOp9
 70
     1
102
RTVSPropertyOp10
 70
     1
102
RTVSPropertyOp11
 70
     1
102
RTVSPropertyOp12
 70
     1
102
RTVSPropertyOp13
 70
     1
102
RTVSPropertyOp14
 70
     1
102
RTVSPropertyOp15
 70
     1
102
RTVSPropertyOp16
 70
     1
102
RTVSPropertyOp17
 70
     1
102
RTVSPropertyOp18
 70
     1
102
RTVSPropertyOp19
 70
     1
102
RTVSPropertyOp20
 70
     1
102
RTVSPropertyOp21
 70
     1
102
RTVSPropertyOp22
 70
     1
102
RTVSPropertyOp23
 70
     1
102
RTVSPropertyOp24
 70
     1
102
RTVSPropertyOp25
 70
     1
102
RTVSPropertyOp26
 70
     1
102
RTVSPropertyOp27
 70
     1
102
RTVSPropertyOp28
 70
     1
102
RTVSPropertyOp29
 70
     1
102
RTVSPropertyOp30
 70
     1
102
RTVSPropertyOp31
 70
     1
102
RTVSPropertyOp32
 70
     1
  0
XRECORD
  5
1FE1
102
{ACAD_REACTORS
330
1FE0
102
}
330
1FE0
100
AcDbXrecord
280
     1
102
RTVSPropertyOp0
 70
     1
102
RTVSPropertyOp1
 70
     1
102
RTVSPropertyOp2
 70
     1
102
RTVSPropertyOp3
 70
     1
102
RTVSPropertyOp4
 70
     1
102
RTVSPropertyOp5
 70
     1
102
RTVSPropertyOp6
 70
     1
102
RTVSPropertyOp7
 70
     1
102
RTVSPropertyOp8
 70
     1
102
RTVSPropertyOp9
 70
     1
102
RTVSPropertyOp10
 70
     1
102
RTVSPropertyOp11
 70
     1
102
RTVSPropertyOp12
 70
     1
102
RTVSPropertyOp13
 70
     1
102
RTVSPropertyOp14
 70
     1
102
RTVSPropertyOp15
 70
     1
102
RTVSPropertyOp16
 70
     1
102
RTVSPropertyOp17
 70
     1
102
RTVSPropertyOp18
 70
     1
102
RTVSPropertyOp19
 70
     1
102
RTVSPropertyOp20
 70
     1
102
RTVSPropertyOp21
 70
     1
102
RTVSPropertyOp22
 70
     1
102
RTVSPropertyOp23
 70
     1
102
RTVSPropertyOp24
 70
     1
102
RTVSPropertyOp25
 70
     1
102
RTVSPropertyOp26
 70
     1
102
RTVSPropertyOp27
 70
     1
102
RTVSPropertyOp28
 70
     1
102
RTVSPropertyOp29
 70
     1
102
RTVSPropertyOp30
 70
     1
102
RTVSPropertyOp31
 70
     1
102
RTVSPropertyOp32
 70
     1
  0
ENDSEC
  0
EOF
